Login or Register to remove this ad. | Advertise Here

Opening Battle Theme (Pokémon Red & Blue & Yellow) Guitar Tab

Submitted: Jan 27, 2010 by Codykins

4.166665
Average: 4.2 (6 votes)
Download | Listen
Game: Pokémon Red & Blue & Yellow
Composer(s): Junichi Masuda
Style: Alternate picking, Transcription
Series: Pokemon

AutoScroll: Slow | Medium | Fast
Opening Battle Theme
Pokemon Red/Blue
Tabbed by Codykins

e------------------------------------
B------------------------------------
G------------------------------------
D-0-0-7--0-0-8--0-0-7--0-0-4--------
A------------------------------------
E------------------------------------

e------------------------------------
B------------------------------------
G------------------------------------
D-0-0-7--0-0-11-12--------10---------
A--------------------10--------8-----
E------------------------------------

e----------------------------------10
B------------------------------------
G------------------------------------
D-0-0-7--0-0-8--0-0-10--0-0-11-12----
A------------------------------------
E------------------------------------

1 comment on Opening Battle Theme

Pokemon Battle

4

Great Tab. It's a fast to do a melody wonderfull