Login or Register to remove this ad. | Advertise Here

Lavender Town (Pokémon Red & Blue & Yellow) Guitar Tab

Submitted: Jan 23, 2012 by Kenkiske (Last updated: Jan 23, 2012)

4.6
Average: 4.6 (5 votes)
Download | Listen
Game: Pokémon Red & Blue & Yellow
Composer(s): Junichi Masuda
Style: 2 or more instruments, Transcription
Series: Pokemon

AutoScroll: Slow | Medium | Fast
01/21/2012

LAVENDER TOWN

by:Kenkiske

GUITAR 1 [Intro-Rhythm]:

|---------19----------19----------19----------19---|
|------20---19-----20---19-----20---19-----20---19-|
|---17----------17----------17----------17---------|
|--------------------------------------------------|
|--------------------------------------------------|
|--------------------------------------------------|

GUITAR 2 [Solo]:


|------------------7---------------7----7-8-8---|
|--8-8-5-5~--8-7-5---------8-8-7-7--8-7---------| 
|--------------------6-6------------------------|
|-----------------------------------------------|
|-----------------------------------------------|
|-----------------------------------------------|

       PLAY 2 Times when...

GUITAR 3 [2nd Rhythm]

|-----------------------|
|--5-5-3-3-1-1--5-----5-|
|-----------------5-4---|
|-----------------------|
|-----------------------|
|-----------------------|

Plays solo again.

repeat all to fade..

5 comments on Lavender Town

awesome

5

Wow its perfect thanks for the tabs

Just a question...

How do you play the creepy waves of distorted scary goodness on the guitar?

if your amp has a slightly

if your amp has a slightly creepy preset, use that preset then mess with the bass, treble, gain and other settings until you find the perfect setting.

Love it but is this just for electric guitars

4

Is this only for an electric guitar or can I play it on my acoustic guitar as well

For both

For both