Login or Register to remove this ad. | Advertise Here

Gym Theme (Pokémon Red & Blue & Yellow) Guitar Tab

Submitted: May 31, 2011 by OggirtMoonfrad (Last updated: May 31, 2011)

5
Average: 5 (4 votes)
Download | Listen
Game: Pokémon Red & Blue & Yellow
Composer(s): Junichi Masuda
Style: Arrangement, Fingerstyle
Series: Pokemon

This song is also called Elite Four

Click here for a video example.

AutoScroll: Slow | Medium | Fast
Pokemon Gym Theme
Pokemon Red/Blue/Yellow
Junichi Masuda
Arranged and tabbed by OggirtMoonfrad (Misha Colbourne)
31/05/2011

Capo 2


     ^                                                                 
     Q.     S S Q.     S  S    H        Q    Q       W                 
E||--5--------5-3------0h-3-|--2--------2----4----|--L----------------|
B||--2------5---1-----------|--3--------3----0----|--L----------------|
G||--2----------0-----------|--2--------2----4----|--L----------------|
D||--2----------2-----------|--0--------0----2----|--L----------------|
A||--0----------3-----------|---------------------|-------------------|
E||-------------------------|---------------------|-------------------|


  ^                 ^  ^     ^    ^ ^                  
  E  E  E  E  E  E  E  E     E  S S E  E  E  E  E  E   
--------------------------|---------------------------|
--------------------------|--0------------------------|
--2--------------------2--|-------0-0-----------------|
-----2-----2--------2-----|---------------------------|
--------4--------4--------|-----2------2-----2-----2--|
--5-----------5-----------|--0------0-----0-----0-----|


  ^                 ^  ^     ^  ^ ^ ^                  
  E  E  E  E  E  E  E  E     E  S S E  E  E  E  E  E   
--------------------------|---------------------------|
--------------------------|---------0-----------------|
--2--------------------2--|--0--0-2-------------------|
-----2-----2--------2-----|---------------------------|
--------4--------4--------|-----2------2-----2-----2--|
--5-----------5-----------|--0------0-----0-----0-----|


  ^                 ^  ^     ^    ^ ^     ^    ^ ^      
  E  E  E  E  E  E  E  E     E  S S E  E  E  S S E  E   
--------------------------|---------------3------------|
--2--------------------2--|--3----0-0----------3-3-----|
--------------------4-----|----------------------------|
-----2-----2-----2-----2--|----------------------------|
--0-----0-----0-----0-----|-----2------2-----2------2--|
--------------------------|--0------0-----0------0-----|


   ^                  ^  ^     ^  ^ ^ ^           ^      
   E   E  E  E  E  E  E  E     E  S S E  E  E  E  E  E   
----------------------------|---------3-----------2-----|
---2---------------------2--|--3--0-3-------------3-----|
--(4)-----------------4-----|---------------------------|
-------2-----2-----2-----2--|---------------------------|
---0------0-----0-----0-----|-----2------2-----2-----2--|
----------------------------|--0------0-----0-----0-----|


  ^         ^          ^         ^     ^     ^     ^      
  E  E  E   E   E  E   E   E     E  E  E  E  E  E  E  E   
------------5-----------------|--3-----2-----0-----------|
--5--------(5)---------5------|--3-----3-----3-----3-----|
--2-------------------(2)-----|--------------------0-----|
-----2------2------2-------2--|--------------------------|
--0-----0-------0------0------|-----2-----2-----2-----2--|
------------------------------|--0-----0-----0-----0-----|


  ^  ^ ^ ^         ^    ^    ^      ^     ^     ^     ^      
  E  S S E  E  E   E    E    E      E  E  E  E  E  E  E  E   
------------------------5--------|--3-----2-----0-----------|
--2--2-3-5---------5---(5)---5---|--3-----3-----3-----3-----|
------------------(2)-------(2)--|--------------------0-----|
-----2------2------2---------2---|--------------------------|
--0------0-----0--------0--------|-----2-----2-----2-----2--|
---------------------------------|--0-----0-----0-----0-----|


  ^         ^          ^         ^     ^     ^     ^      
  E  E  E   E   E  E   E   E     E  E  E  E  E  E  E  E   
------------5-----------------|--3-----2-----0-----------|
--5--------(5)---------5------|--3-----3-----3-----3-----|
--2-------------------(2)-----|--------------------0-----|
-----2------2------2-------2--|--------------------------|
--0-----0-------0------0------|-----2-----2-----2-----2--|
------------------------------|--0-----0-----0-----0-----|


  ^           ^              ^  T  T  T                 ^                  
  E  S S Q    E  S S Q       E  S  S  H         Q       W                  
--------------0--0-2-3----|--3--3s-5s-7p--------3----|--5----------------||
--2--2-3-5----0-----------|--3-----------------------|--2----------------||
--2-----------0-----------|--0-----------------------|--2----------------||
--2-----------2-----------|--0-----------------------|--2----------------||
--0-----------2-----------|--2-----------------------|--0----------------||
--------------0-----------|--3-----------------------|-------------------||




Duration Legend
---------------
W - whole
H - half
Q - quarter
E - 8th
S - 16th
T - 32nd
X - 64th
. - note dotted
|-n-|  - n-tuplets


Tablature Legend
----------------
L - tied note
x - dead note
g - grace note
(n) - ghost note
> - accentuded note
NH - natural harmonic
AH - artificial harmonic
TH - tapped harmonic
SH - semi harmonic
PH - pitch harmonic
h - hammer on
p - pull off
b - bend
br - bendRelease
pb - preBend
pbr - preBendRelease
brb - bendReleaseBend
\n/ - tremolo bar dip
\n - tremolo bar dive
-/n - tremolo bar Release up
/n\ - tremolo bar inverted dip
/n - tremolo bar return
-\n - tremolo bar Release down
S - shift slide
s - legato slide
/ -  slide into from below or out of upwards
\ -  slide into from above or out of downwards
~ - vibrato
W - wide vibrato
tr - trill
TP - tremolo picking
T - tapping
S - slap
P - pop
< - fade in
^ - brush up
v - brush down

4 comments on Gym Theme

And the Capo?

5

In your video you use a capo on 2nd fret
in this tab you never say the capo and in gp5 its says
I think you didnt notice
It happens

isa iv said In your video you

isa iv said

In your video you use a capo on 2nd fret
in this tab you never say the capo and in gp5 its says
I think you didnt notice
It happens

Ah thats odd, the ascii tab was made using the export function in gp5, I would have expected the program to put "Capo 2" as it normally does.

Thanks for pointing that out, shall amend the tab.

OggirtMoonfrad said isa iv

OggirtMoonfrad said

isa iv said

In your video you use a capo on 2nd fret
in this tab you never say the capo and in gp5 its says
I think you didnt notice
It happens

Ah thats odd, the ascii tab was made using the export function in gp5, I would have expected the program to put "Capo 2" as it normally does.

Thanks for pointing that out, shall amend the tab.

how do you amend/edit a tab like how you did

If you were the one to post

If you were the one to post the tab originally, you get an Edit button. If someone else posted it for you, or you submitted it through the submissions forum, just post an updated file into the submissions forum and a moderator will update it for you :-)