Login or Register to remove this ad. | Advertise Here

Gym Battle (Pokémon Red & Blue & Yellow) Guitar Tab

Submitted: Aug 03, 2009 by Viter

5
Average: 5 (6 votes)
Download | Listen
Game: Pokémon Red & Blue & Yellow
Composer(s): Junichi Masuda
Style: Transcription
Series: Pokemon

AutoScroll: Slow | Medium | Fast
Pokemon Red/Blue/Yellow - Gym Battle Music
Made by Viter (this is my first tab!)

                                                            
x2                                                             
E-----------------------------------------------------------------------------------|
B-----------------------------------------------------------------------------------|
G-9----------9----10-----------------9----------9----7------------------------------|
D-----------------------------------------------------------------------------------|
A-----------------------------------------------------------------------------------|
E-----------------------------------------------------------------------------------|

E-----------------------------------------------------------------------------------|
B---------7-5-4-------4------5----------------7-5-4-------4----------5--------------|
G-8-6-8-9-------6-4-6------6---6------8-6-8-9-------6-4-6------6-4-----6------------|
D------------------------7-----------------------------------------7----------------|
A-----------------------------------------------------------------------------------|
E-----------------------------------------------------------------------------------|

E-----------------------------------------------------------------------------------|
B-----------------------------------------------------------------------------------|
G-----------------------------------------------------------------------------------|
D-----------------------------------------------------------------------------------|
A-0-0-3h5-0-5h7-0-7h9-7-5-7-5-------------------------------------------------------|
E-----------------------------------------------------------------------------------|

E-----------------------------------------------------------------------------------|
B------------------------------------------7----------------------------------------|
G-4-5----4-5-------------4-5----4-5---5-4-------------------------------------------|
D-----7------7-5-4-----------7------7-----------------------------------------------|
A-----------------------------------------------------------------------------------|
E-----------------------------------------------------------------------------------|

E-----------------------------------------------------------------------------------|
B--------------------------------------12----------------------10---12--------------|
G-------------------8----8-9-11---8-11----11----11----------------9-----------------|
D---------------------11--------9------------13-------------------------------------|
A-0-0-----0-0-----------------------------------------0-0---------------------------|
E-----9-------12------------------------------------------9-------------------------|

x2
E-----------------------------------------------------------------------------------|
B-----------------------------------7-10-9------------------------------------------|
G-8-9----8-11-9-8------8-9----8-----------------------------------------------------|
D-----11----------11-------11-------------------------------------------------------|
A-----------------------------------------------------------------------------------|
E-----------------------------------------------------------------------------------|

5 comments on Gym Battle

Please Comment

5

Please comment guys! :D

This tab is epic.

5

I can't get over how good this tab is. I might remix this song for a Let's Play of this game.

Thanks so much for commenting

5

Thanks so much for commenting means alot to me :)
I realise that the third part could be better, but the rest is awesome :)
Thx for commenting means alot ot me!

Realy good tab!

5

Really good tab!

Tab

5

This is epic but I found at the last part of the tab right before you repeat you can play this instead if you wanted

||12--------10---14
||-----11----------
||-----------------
||-----------------
||-----------------
||-----------------