Login or Register to remove this ad. | Advertise Here

Elite Four (Pokémon Red & Blue & Yellow) Guitar Tab

Submitted: Mar 17, 2011 by Alisson o Matador

2.5
Average: 2.5 (2 votes)
Download | Listen
Game: Pokémon Red & Blue & Yellow
Composer(s): Junichi Masuda
Style: Transcription
Series: Pokemon

AutoScroll: Slow | Medium | Fast
Title: Ginásio Pokémon
Game: Pokémon
Artist: Junichi Masuda
Tabber: Alisson o Matador
Date: March 14th 2011

Tempo = 100bpm




Duration Legend
---------------
W - whole
H - half
Q - quarter
E - 8th
S - 16th
. - note dotted


Tablature Legend
----------------
L - tied note



     |---------------3----------------|
                                                        
     H           E  E  H           E  E       H     E  E     
E ||---------------------------------------|----------------|
B ||-1--------------1----------------------|-----------0----|
G ||o------------0-----3--------------3----|--2-----2-------|
D ||o------------------------------3-------|----------------|
A ||---------------------------------------|----------------|
E ||---------------------------------------|----------------|


                               |--3--|      

  H           E  E  E  E       E     E  H.                            
----------------------------|----------------------------------------|
--1L----------1--------1----|--3-------------------------------------|
--------------------0-------|--------3--3----------------------------|
-----------------2----------|----------------------------------------|
----------------------------|----------------------------------------|
----------------------------|----------------------------------------|




  H           E  E  E  E     
----------------------------|
--1L----------1--------1----|
--------------------0-------|
-----------------2----------|
----------------------------|
----------------------------|


          |-3-|     

  E        S  E     H.                                                        
----------------------------------------------------------------------------|
--------------1-----3-------------------------------------------------------|
--3--------3----------------------------------------------------------------|
----------------------------------------------------------------------------|
----------------------------------------------------------------------------|
----------------------------------------------------------------------------|


                               |-3-|             |--3--|     
                     
  H.                E  E       Q     E  Q        Q     E  Q                       
--0--------------------0----|--------------------6-------------------|
--------------------3-------|--6-----------------------6--6----------|
----------------------------|--------7--7----------------------------|
----------------------------|----------------------------------------|
----------------------------|----------------------------------------|
----------------------------|----------------------------------------|



                                                                            
  H.                E  E                                                                               
--0--------------------0----|
--------------------3-------|
----------------------------|
----------------------------|
----------------------------|
----------------------------|


          |-3-|             
                                                    
  E        S  E     H.                                                           
--------------------6-------------------------------------------------------|
--6-----------6-------------------------------------------------------------|
-----------7----------------------------------------------------------------|
----------------------------------------------------------------------------|
----------------------------------------------------------------------------|
----------------------------------------------------------------------------|


                                               
                             
  Q.       Q.       Q          Q  Q  Q  Q                                           
-----------8----------------|--6--5--3-------|
--8-----------------8-------|-----------6----|
----------------------------|----------------|
----------------------------|----------------|
----------------------------|----------------|
----------------------------|----------------|


           |-3-|           
                                                      
  E        S   E    Q.                         E        E        E                  
--------------------------------------------------------8-------------------|
--------------------8--------------------------8-----------------8----------|
--9--------9--10------------------------------------------------------------|
----------------------------------------------------------------------------|
----------------------------------------------------------------------------|
----------------------------------------------------------------------------|


              
                                                              
  Q  Q  Q  Q                                                                    
--6--5--3-------|
-----------6----|
----------------|
----------------|
----------------|
----------------|


           |-3-|                               |-3-|  
                      
  E        S   E    Q                 E        S   E     Q                          
----------------------------------------------------------------------------|
--------------------8-----------------8--------8--10----11------------------|
--9--------9--10------------------------------------------------------------|
----------------------------------------------------------------------------|
----------------------------------------------------------------------------|
----------------------------------------------------------------------------|


                                                    
                        
  E        S   E    Q.                         E        E        E                  
--8--------8--10----12-----------------------------------------------------||
--------------------------------------------------------1------------------||
-----------------------------------------------0--------------------------o||
-----------------------------------------------------------------2--------o||
---------------------------------------------------------------------------||
---------------------------------------------------------------------------||



  |---------------3----------------|  
                                                      
  H           E  E  H           E  E       H     E  E       W                                                                 
----------------------------------------|----------------|-------||
--1--------------1----------------------|-----------0----|--1----||
--------------0-----3--------------3----|--2-----2-------|-------||
--------------------------------3-------|----------------|-------||
----------------------------------------|----------------|-------||
----------------------------------------|----------------|-------||