Login or Register to remove this ad. | Advertise Here

National Park (Pokémon Gold & Silver) Guitar Tab

Submitted: Jul 11, 2010 by GuitarGuy

5
Average: 5 (7 votes)
Download | Listen
Game: Pokémon Gold & Silver
Composer(s): Junichi Masuda, Go Ichinose
Style: Arrangement, Fingerstyle
Series: Pokemon

AutoScroll: Slow | Medium | Fast
Arranged by Romyl Lopez (GuitarGuy)
 

Gtr I (E A D G B E) - 'National Park'


Capo: 1


   Q=80
  4/4
   Gtr I
   H    Q  E S S   W                H       +Q.   S S   W
*|---------------|----------------|-------------------|----------------|
*|---------------|-0--------------|-1-------(1)-------|-0--------------|
*|-----------0-2-|-----0------0---|-----0---------0-2-|-----0-------0--|
*|---------------|---2---2--2---2-|---2---2-----------|---2---2---2---2|
*|---------------|-3--------------|-3--------3--------|-3--------------|
*|---------------|----------------|-------------------|----------------|
                   E E E Q  E E E   E E E E  H    E     E E E Q   E E E


  H       +E  E E E   E  E E E +H
|-------------------|-0------------------|
|-1-------(1)-0-1-3-|----3-1-------------|
|-----0-------------|--------2-(2)-------|
|---2---2-----------|----------------3---|
|-3--------3--------|--------------3---3-|
|-------------------|-1------1-----------|
  E E E E  H          Q.     Q     E E E


  E  E E E +H          E  E E E +E  E +E  E
|-0------------------|--------------3-(3)---|
|----3-1-------------|-3--1-0-------------3-|
|--------1-(1)-------|--------0-(0)---------|
|----------------3---|----------------------|
|--------------3---3-|-----------2----------|
|-1------1-----------|-0------0-------------|
  Q.     Q     E E E   Q.     E  H


  H       +Q.     S S   E  E E E +H
|-0-------(0)---------|-0------------------|
|-----2-----------1-3-|----3-1-------------|
|-----2---------2-----|--------2-(2)-------|
|---2---2-----2-------|----------------3---|
|-0--------0----------|--------------3---3-|
|---------------------|-1------1-----------|
  E E E E  E  E Q       Q.     Q     E E E


  E  E E E +H          E  E E E +E  E +E  E
|-0------------------|-----------------------|
|----3-1-------------|-3--1-0-------------0--|
|--------1-(1)-------|--------0-(0)-2-(2)----|
|----------------3---|-----------------------|
|--------------3---3-|-----------2-----------|
|-1------1-----------|-0------0--------------|
  Q.     Q     E E E   Q.     E  H


  H.      E S S   W                H       +Q.   S S   W
|---------------|----------------|-------------------|----------------|
|---------------|-0--------------|-1-------(1)-------|-0--------------|
|-2---------0-2-|-----0------0---|-----0---------0-2-|-----0------0---|
|---------------|---2---2--2---2-|---2---2-----------|---2---2--2---2-|
|-0-------------|-3--------------|-3--------3--------|-3--------------|
|---------------|----------------|-------------------|----------------|
  H.      Q       E E E Q  E E E   E E E E  H          E E E Q  E E E


  H       +E  E E E   E  E E E +H
|-------------------|-0------------------|
|-1-------(1)-0-1-3-|----3-1-------------|
|-----0-------------|--------2-(2)-------|
|---2---2-----------|----------------3---|
|-3--------3--------|--------------3---3-|
|-------------------|-1------1-----------|
  E E E E  H          Q.     Q     E E E


  E  E E E +H          E  E E E +E  E +E  E
|-0------------------|--------------3-(3)---|
|----3-1-------------|-3--1-0-------------3-|
|--------1-(1)-------|--------0-(0)---------|
|----------------3---|----------------------|
|--------------3---3-|-----------2----------|
|-1------1-----------|-0------0-------------|
  Q.     Q     E E E   Q.     E  H


  H       +Q.     S S   E  E E E +H
|-0-------(0)---------|-0------------------|
|-----2-----------1-3-|----3-1-------------|
|-----2---------2-----|--------2-(2)-------|
|---2---2-----2-------|----------------3---|
|-0--------0----------|--------------3---3-|
|---------------------|-1------1-----------|
  E E E E  E  E Q       Q.     Q     E E E


  E  E E E +H          E  E E E +E  E +E  E
|-0------------------|-----------------------|
|----3-1-------------|-3--1-0-------------0--|
|--------1-(1)-------|--------0-(0)-2-(2)----|
|----------------3---|-----------------------|
|--------------3---3-|-----------2-----------|
|-1------1-----------|-0------0--------------|
  Q.     Q     E E E   Q.     E  H


  H  E E E E   E S S +S  S E +Q. S S
|------3-1-0-|-0-0h1-(1)-------------|
|------------|-------------1-(1)---1-|
|-2----------|-------------------2---|
|------------|-----------------------|
|-0----------|-----------------------|
|------------|-1-----------1---------|
  W            H           H


  E S S +S  S E +Q. S S   E  S S +E  E  E  S S S S S S
|-0-0h1-(1)-------------|------------3-/5--3---1---3---|
|-------------3-(3)-3-1-|-0----------------------------|
|-----------------------|------0-(0)-------------------|
|-----------------------|------------------------------|
|-----------------------|------------------------------|
|-1-----------1---------|-0----------0-(0)-------------|
  H           H           Q.         E +H


  W               E S S +S  S E +Q. S S
|-0-------------|-0-0h1-(1)-------------|
|-2-------------|-------------1-(1)---1-|
|-----2-----2---|-------------------2---|
|---2---2-2---2-|-----------------------|
|-0-------------|-----------------------|
|---------------|-1-----------1---------|
  E E E Q E E E   H           H


  E  S S +S  S E +Q. S S   E  S S +E  E +Q  Q
|-0--0h1-(1)-------------|--------------------|
|--------------3-(3)-3-1-|-0----------------0-|
|------------------------|------0-(0)-2-(2)---|
|------------------------|--------------------|
|------------------------|--------------------|
|-1------------1-(1)-----|-0----------0-(0)---|
  Q.           E +H        Q.         E +H


  H.      E S S   W                H       +Q.   S S   W
|---------------|----------------|-------------------|----------------|
|---------------|-0--------------|-1-------(1)-------|-0--------------|
|-2---------0-2-|-----0------0---|-----0---------0-2-|-----0------0---|
|---------------|---2---2--2---2-|---2---2-----------|---2---2--2---2-|
|-0-------------|-3--------------|-3--------3--------|-3--------------|
|---------------|----------------|-------------------|----------------|
  H.        Q     E E E Q  E E E   E E E E  H          E E E Q  E E E


  H       H
|--------------*|
|-1------------*|
|-----0--------*|
|---2---2-2----*|
|-3-------3----*|
|---------3----*|
  E E E E H

7 comments on National Park

Awesome tab!

5

Awesome tab!

Thanks!

Thanks!

Amazing Tab

5

Woah! This Is Amazing.

Pokemon Crystal/Gold/Silver Is The Best Pokemon IMO.
The New Ones Just Suck.

Thanks! The new ones don't

Thanks! The new ones don't suck that much because it gives a little brighter view of the old ones, but I'm disappointed with the way how they just added stuff from the Diamond/Platinum/Pearl series like the Battle places and stuff like that.

thanks!

5

maybe its because i've only been playing guitar for a year, but the way you show the length of the notes is kinda confusing. i'm trying to put it into guitar pro 5 so i can listen to it and play along. its a great tab though!

My bad..

My bad..

That's standard notation for

That's standard notation for guitar tab note duration. Tabbing programs put that there automatically upon export.