Login or Register to remove this ad. | Advertise Here

Through the Sea of Time (Pokémon Mystery Dungeon: Explorers of Sky) Guitar Tab

Submitted: Sep 03, 2011 by Cherucha

4.5
Average: 4.5 (2 votes)
Download | Listen
Game: Pokémon Mystery Dungeon: Explorers of Sky
Composer(s): Arata Iiyoshi, Hideki Sakamoto, Keisuke Ito, Ken-ichi Saito, Yoshihiro Maeda
Style: Transcription

AutoScroll: Slow | Medium | Fast
 Through The Sea Of Time
~Pokemon Mystery Dungeon Explorers of Sky~
 Composed by Arata Iiyoshi, Hideki Sakamoto, Keisuke Ito, Ken-ichi Saito, Yoshihiro Maeda


 Intro
E|-0-0-0-------0-----------
B|-------3-3-3---3---------
G|-------------------------
D|-------------------------
A|-------------------------
E|------------------------- x3

E|-0-0-0-------------------
B|-------3-----------------
G|-------------------------
D|-------------------------
A|-------------------------
E|-------------------------

   


E|---------0---------------
B|-----1-3---3-1-0---0-----
G|-0-2-------------0---2---
D|-------------------------
A|-------------------------
E|-------------------------

E|-----------------0--------
B|-----------0-1-3---3-1-0--
G|---------2---------------0
D|-2-2-0-2------------------
A|--------------------------
E|--------------------------

E|-----0-0---0--------------
B|-0-------3----------------
G|---2----------------------
D|--------------------------
A|--------------------------
E|-------------------------- X2

 
E|-3------------------------
B|---1---0---0--------------
G|-----2---0---2------------
D|---------------2-2--------
A|--------------------------
E|--------------------------

E|-3------------------------
B|---1---0------------------
G|-----2---0-----2-2--------
D|-----------0-2------------
A|--------------------------
E|--------------------------