Login or Register to remove this ad. | Advertise Here

Passacaglia (Suikoden) Guitar Tab

Submitted: Mar 06, 2008 by ronito (Last updated: Oct 04, 2009)

5
Average: 5 (1 vote)
Download | No audio :(
Game: Suikoden
Composer(s): Miki Higashino
Style: Arrangement, Fingerstyle

This song is also called Neclord's Castle

AutoScroll: Slow | Medium | Fast
     Q    E.  T T E.  T T    Q.     S. T E.  T T  
E||---------------0-------|--1------3----5-------|
B||-------3---------------|----------------------|
G||--2--------------------|----------------------|
D||-----------------------|----------------------|
A||-----------------------|----------------------|
D||-----------------------|----------------------|


  E  T T S S. T S. T S. T S. T    Q    Q.     S. T  
--6--5---3-1----3----0---------|--0----------------|
--------------------------3----|-------2-----------|
-------------------------------|-------------------|
-------------------------------|-------------------|
-------------------------------|-------------------|
-------------------------------|-------------------|


  E  S. T S. T S. T S. T S. T    E  S. T S. T S. T S. T S. T  
-----5----4----5----8----5----|--6--3----2----3---------3----|
--3---------------------------|--------------------3---------|
------------------------------|------------------------------|
------------------------------|------------------------------|
------------------------------|------------------------------|
------------------------------|------------------------------|


  E  S. T S. T S. T S. T S. T    E  S. T S. T S. T S. T S. T  
-----3----2----3----6----3----|--5---------------------------|
--1---------------------------|-----6----5----6---------6----|
------------------------------|--------------------5---------|
------------------------------|------------------------------|
------------------------------|------------------------------|
------------------------------|------------------------------|


  E  S. T S. T S. T S. T S. T    E  S. T S. T S. T Q     
-----1----0----1----5----1----|--3--0---------0----1----|
------------------------------|-------------------------|
--3---------------------------|----------2--------------|
------------------------------|-------------------------|
------------------------------|-------------------------|
------------------------------|-------------------------|


  E  S. T S S S S S T T T T T T    H        E.  T T    Q    E.  T T E.  T T  
-----3----5-3-5-3-5-3---5-----3-|--5----------------|---------------0-------|
----------------------------6---|-------------------|-------3---------------|
--------------------------------|-------------------|--2--------------------|
--------------------------------|-------------------|-----------------------|
--------------------------------|-------------------|--0----0-------0-------|
--------------------------------|-------------------|-----------------------|


  Q    E  S. T  E.  T T    E  T T S S. T S. T E  S. T  
------------------------|--6--5---3-1----3----0-------|
--6-------8----10-------|------------------------3----|
------------------------|-----------------------------|
--0---------------------|--0--------------------------|
--8----7--------8-------|---------------------2-------|
------------------------|--5------------------6-------|


  Q    E  S. T S. T S. T    E  S. T E  S. T E  S. T  
--0----------------------|-----5----4--5----8--5----|
-------2-----------------|--3-----------------------|
-------------------------|--------------------------|
--0-------2--------------|--4-------4---------------|
--0----4-------0---------|------------------9-------|
--------------------5----|--------------------------|


  E  S. T S. T S. T E  S. T    E  S. T E  S. T E  S. T  
--6--3----2----3-------3----|-----3----2--3----6--3----|
--------------------3-------|--1-----------------------|
--0-------------------------|--------------------------|
--------------------3-------|--2-------2---------------|
----------------------------|------------------7-------|
----------------------------|--------------------------|


  E  S. T S. T S. T E  S. T    E  S. T E  S. T E  S. T    E  S. T E  S. T Q     
--5--1----0----1-------1----|-----1----0--1----5--1----|--3--0-------0----1----|
--------------------1-------|--------------------------|-----------------------|
----------------------------|--3-----------------------|----------2------------|
--3-----------------2-------|--0-------0-------0-------|--2---------------0----|
----------------------------|--------------------------|----------4------------|
----------------------------|--------------------------|-----------------------|


  E  S. T S S S S S T T T T T T    Q    S. T S. T E.  T T  
-----3----5-3-5-3-5-3---5-----3-|--5----------------------|
----------------------------6---|-------------------------|
--------------------------------|-------------------------|
--------------------------------|--0----------------------|
--1-----------------------------|--0----4----2----4-------|
--------------------------------|-------------------------|


  S. S T S S. S S T S. S S T    S.  S T S  S. S S T  S. S S T  
--------------0-1---0--1-3---|--1--10---9-10------------------|
-----3---2-3-----------------|---------------10-8---10--------|
--2--------------------------|-------------------------10-7---|
--0--------3-----------------|--0-----------------------------|
--------------------0--------|-------------7---------8--------|
-----------------------------|--------------------------------|


  S. S T S S T S S T S. S S T    S. S T S S T T T S T S. T T S T  
--6--5---3-1---3-1---0--1-----|------------------------------0---|
--------------------------3---|--3--2---0-2-------0---2--3-------|
--0------------------1--------|--2------------2-------2----0-----|
------------------------------|-----------------2----------------|
------------------------------|----------------------------------|
------------------------------|----------------------------------|


  S. S T S S. S S T S. S S T    S. S T S S T S S T S. S S T  
-----5---4-5--8-5------5-8---|--6------------5-6------0-1---|
--3-----------------3--------|-----8---7-8---------3--------|
-----------------------------|--0---------------------------|
--4--------4--------4--------|---------------------3--------|
-----------------------------|------------------------------|
-----------------------------|------------------------------|


  S. S T S S. S S T S. S S T    S. S T S S T S S T S. S S T  
-----3---2-3--6-3------3-6---|--5------------5--------------|
--1-----------------1--------|-----6---5-6--------------1---|
-----------------------------|-----------------5---2--3-----|
--2--------2--------2--------|--3------------------2--------|
-----------------------------|------------------------------|
-----------------------------|------------------------------|


  S. S T S S. S S T S. S S T    S. S T S S. S S T S. S S.  
-----1---0-1--5-1------0-1---|--3--0---3-6--5-3---1--0----|
--------------------3--------|-------------------------3--|
--3--------------------------|----------------------------|
--0--------0--------0--------|--2-----------------0-------|
-----------------------------|-----------4----------------|
-----------------------------|----------------------------|


  S. S T S T T T T T T T T T T T S S T    S. S T S S T S S T E.  T T  
-----3---2-3-5-3-5-3-5-3-5-3-5-5---3---|--5--0-----------0-----------|
-----------------------------8---6-----|---------3-2---3-------------|
---------------------------------------|---------------------2-------|
---------------------------------------|-----------------------------|
--1------------------------------------|--0--------------------------|
---------------------------------------|-----------------------------|


  S T T T T S S S S S S T T T T S    S T T T T S S S S S S T T T T S  
------------------1---------0-----|--1-----------3-------5-----------|
----3---2---3---3---3-2-3-------2-|----3---2---3---3-2-3---3---2---3-|
--2-----------2-------------------|----------------------------------|
--0-----------3-------------------|--0---------------2---3-----------|
----------------------0-----------|----------------------------------|
----------------------------------|----------------------------------|


  S T T T T S S S S S S T T T T S    S T T T T S S S S S S T T S S  
--6-5---3---1-3-1-0-1-0-----------|----0-------------------------0-|
------------------------3---2---3-|--3-----2---0-2-------0-2---3---|
----------------------------------|----------------2-1-2-2-----0---|
----------------------------------|------------------2-------------|
----------------------------------|--0-----------------------------|
--5-------------------6-----------|--------------------------------|


  S T T T T S S S S S S T T T T S    S T T T T S S S S S S T T T T S  
----5---4---5-8-5-4-5---5---4---5-|--6-3---2---3---3-2-3-------3---6-|
--3-------------------3-----------|--------------3---------3---------|
----------------------------------|----------------------3-----------|
--4-------------------4-----------|--5-------------------3-----------|
--------------9-------------------|----------------------------------|
----------------------------------|----------------------------------|


  S T T T T S S S S S S T T T T S     S  T T T T  S  S  S S  S S T T T T S  
--------------6-------------------|--------------------------------------5-|
----8---7---8---8-7-8---8---7---8-|--10------------------------------6-----|
--5-------------------5-----------|-----10---9---10----10-9-10---5---------|
----------------------------------|-----------------10---------7-----------|
--7-----------7-------7-----------|---8------------------------7-----------|
----------------------------------|----------------------------------------|


  S T T T T S S S S S S T T T T S    S T T T T S S S S S S T T E   
----1---0---1-5-1-0-1---1---0---1-|--3-0-------0-----0-3-1-0---1--|
----------------------------------|--------3-------2--------------|
--3-------------------3-----------|--------------2----------------|
--0-----------0-------0-----------|--2-------------------0--------|
----------------------------------|--------------4----------------|
----------------------------------|-------------------------------|


  S T T T T S S S S S S T T T T T T    S T T T T S S S S S E.  T T  
----3---1---3-5-3-5-3-5-3-5-3---5-3-|--5-0-------0---0---0---------|
------------------------------------|--------3-----2---0-----------|
------------------------------------|----------------------2-------|
------------------------------------|------------------------------|
--1---------------------------------|--0---------------------------|
------------------------------------|------------------------------|


  Q    E.  T T E.  T T     Q.     S. T E.  T T    E  T T S S. T S. T S. T S. T  
---------------0-------|--10-------------------|--3----------------------------|
-------3---------------|-----------------------|--3----------------------------|
--2--------------------|--10------0------------|--3--2---0------0--------------|
-----------------------|--12-----------7-------|-----------3---------2----0----|
-----------------------|-----------------------|-------------------------------|
-----------------------|-----------------------|-------------------------------|


  Q    Q    E.  T T    S T S T S S T S S T S T S S T  
--5---------3-------|--2-----------------------------|
--3-----------------|--1-----------------------------|
--------------------|--------------------------------|
--2-----------------|--0-------------------4---0-4---|
-------4------------|------0-----0---3-0-------------|
--------------------|----------6---------------------|


  S. S T S S T S S T S. S S T    S. S. S S T S S T S T S S T  
--3---------------------------|--0---------------------------|
--3------------------6--------|------------------------------|
---------0--------------------|--0--0------------------------|
-----4-----0-----0------------|--------4-----------2-----2---|
--1------------1--------0-1---|--3-----------1---------3-----|
---------------------5--------|----------5-----5-------------|


  S. S T S S T S S T S. S S T    S. S T S S T S S T S T S S T  
--1------------------5--------|-------------------------------|
--1---------------------------|--3----------------------------|
------------------------------|---------------2---------------|
-----2---3--------------------|-----3---2-3-----3---0-----0---|
--0--------3---0-3--------0---|--1----------------------1-----|
---------------------3--5-----|-------------------------------|


  S. S T S S. S S T S. S S T    S. S T S S. S S T S T S S T  
--0--------------------------|------------------------------|
-----------2--------3--------|--3---------------------------|
--3--------2-----------------|-----------3------------------|
-----2-------------------0---|-----0--------------3-----3---|
---------1-0--1--------0-----|--1--------1--0-1-------------|
--5-------------5---3--------|---------5--------------5-----|


  Q    S. T S. T E.  T T    S T T T T S S S S  S  S T T  T T S  
-------------------------|----------------1-5-10-12-9----------|
--3----2----0----2-------|--------------3---------------10-----|
--2----------------------|------------2----------------------9-|
--3----2----0----2-------|----0---3----------------------------|
-------------------------|-------------------------------------|
-------------------------|-------------------------------------|


  S T T T T S S S S S S T T T T S    S T T T T S S S S S S T T T T S  
------------------1---5-----------|--6-3---------3-------------------|
----------------3---3---6-------6-|--------3-------3-----------------|
--------------2-------------7-----|------------3-----3-0-------------|
--------0---3---------------------|------------------------0-------0-|
----0-----------------------------|----------------------7-----2-----|
--3-------------------------------|--5-------------------6-----------|


   S T T T T S S S S S S T T T T S    S T T T T S S S S S S T T T T S  
-------------------0---5-6---3---5-|----------------2-5-8-5-----------|
-------------0---------------------|------------1-3---------7---------|
---------------6-7-----------------|--------2-------------------7---5-|
---------7-----------7-------------|----0-----------------------------|
---0-7-----------------------------|----------------------------------|
--11-------------------5-----------|--4-----------4-------4-----------|


  S T T T T S S S S S S T T T T S    S T T T T S S S S S S T T T T S  
----------------------------3-----|----------------0-3-6-3-0---------|
----------------------3---------3-|--------------1-------------1-----|
--3-0-------0-----3-0---3---------|--------0---3-------------------3-|
--------4-------0-----------------|----------------------------------|
--------------1-------------------|----3-----------------------------|
--5-------------------3-----------|--2-----------2-------2-----------|


  S T T T T S S S S S S T T T T S    S T T T T S S S S S S T T T T S  
----------------------------1-----|----------------------------------|
----------------------1---------1-|----------------------------------|
--2---------------2-----2---------|--------------2-------0-----0---3-|
----3---2---3-------3-------------|--------3---0---3-0---------------|
--------------0-3-----------------|----1---------------1---3---------|
--3-------------------2-----------|----------------------2-----------|


  S T T T T S S S S S S T T T T S    S T T T T S S S S S S T T T T S  
----------------------------------|----------------------------------|
--------------1-------------------|--------------1-------------------|
------------2---2---2-------------|--------3---2---3-2-3-2-0---------|
--------3---------3-----3---------|----0-----------------------3---2-|
--0-3-----------------3-----0---3-|--1-------------------------------|
----------------------3-----------|----------------------------------|


  S T T T T S S S S S E.  T T    E  E  E  E  S. T S. T  
------------------------------|--------------0---------|
--------------2---------------|--------3-----2---------|
--------2-------2-----2-------|--2-----2---------------|
--0---------2-----2-----------|-----0-----3------------|
----4---------------4---------|-------------------0----|
--3---------------------------|------------------------|


  E  E.  T T E  E  S. T    E  T T S S. T S. T S. T S. T  
--1----------3--5-------|--6--5---3-1----3----0---------|
--3---------------------|---------------------0----3----|
------------------------|--7----------------------------|
-----0-------2-----3----|-------------------------------|
------------------------|-------------------------------|
------------------------|--5------------------6---------|


  E  S. T S. T S. T S. T S. T    E  S. T E  S. T E  S. T  
--0---------------------------|-----5----4--5----8--5----|
----------2-------------------|--3-----------------------|
--2------------2--------------|--------------------------|
------------------------------|--4-------4---------------|
-----0--------------0---------|------------------9-------|
-------------------------5----|--------------------------|


  E  S. T S. T S. T E  S. T    E  E  S. T E  S. T S. T  
--6--3----2----3-------3----|-----3--2----3--6----3----|
--------------------3-------|--1-----------------------|
--0-------------------------|--------------------------|
--------------------3-------|-----2-------2-------2----|
----------------------------|--------------------------|
----------------------------|--------------------------|


  E  S. T S. T S. T E  S. T    E  E  S. T E  S. T S. T  
--5--1----0----1-------1----|-----1--0----1--5----1----|
--------------------1-------|--------------------------|
----------------------------|--3-----------------------|
--3-----------------2-------|-----0-------0-------0----|
----------------------------|--------------------------|
----------------------------|--------------------------|


  E  E  S. T E  E  S. T    E  S. T S S S S S T T T T T T  
--3--0-------0--1-------|-----3----5-3-5-3-5-3-5-3---5-3-|
------------------------|--------------------------------|
--3-----2---------------|--------------------------------|
-----2-------------2----|--------------------------------|
-------------4----------|--1-----------------------------|
------------------------|--------------------------------|


  Q    S. T S. T E.  T T    S T T S S S S S S S T T S S  
--5----------------------|--------------------0---------|
-------2----0----2-------|------------3---------2---0-2-|
-------------------------|--2-----------2-1-2-----------|
-------------------------|----3---2-3-------------------|
--0----------------------|--------------------------0---|
-------------------------|----------------2-------------|


  S T T S S S S S S S T T S S    S T T T T S S S S S S T T T T S  
--1-------------3---5---------|--6-----5---3-----3---0-----------|
----3---2-0-------------------|--------------6-------------3---0-|
------------2-0-------0-------|--------------------0-------1-----|
------------------2-3-----3-0-|----0-------0-----0-----0---------|
------------------------------|----------------1-----------------|
----------------2---------3---|--5-----8-----5-------6-----------|


  S T T T T S S S S S S T T T T S    S T T S S S S S S S T T S S  
----0-----------------------------|----5---4-5-8-5-4-5---5---4-5-|
--3-----------2-------------------|--3-----------------3---------|
------------1-2-3-0-2---2-------2-|------------------------------|
----2---4-------------3-----2-----|------------------------------|
--------0-------------0-----------|------------------------------|
----------------------------5-----|--------4-------4---------4---|


  S T T T T S S S S S S T T T T S    S T T S S S S S S S T T S S  
--6-3---2---3---3---------------1-|----3---2-3-6-3-2-3---3---6-3-|
--------------3-----3-------3-----|--1-----------------1---------|
------------------3---0-3---------|------------------------------|
----------------------------------|------------------------------|
----------------------------------|------------------------------|
--5-------------------3-----------|--------2-------2---------2---|


  S T T T T S S S S S S T T T T S    S T T S S S S S S S T T S S  
--5-1---0---1---1---------------0-|----1---0-1-5-1-0-1---1---5-1-|
--------------1-----1-------1-----|------------------------------|
------------------2-----2---------|--3-----------------3---------|
----------------------3-----------|--------0-------0---------0---|
----------------------------------|------------------------------|
--3-------------------2-----------|------------------------------|


  S T T S S S S S S E  S. T    S T T T T S S S S S S T T T T T T  
--3-0-----0---0-3-0-1-------|----3---1---3-5-3-5-3-5-3-5-3---5-3-|
--------3-------------------|------------------------------------|
------------2---------------|------------------------------------|
--------2--------------0----|------------------------------------|
----------------4-----------|--1---------------------------------|
----------------------------|------------------------------------|


  S T T T T S S S S S E.  T T    S T T T T S S S S S S T T T T S  
--5-0-------0---0---0---------|----------------------------------|
--------3-----2---0---2-------|--3-------------------------------|
------------------------------|----------------------------------|
------------------------------|----0-------0---0---0---0-------0-|
--0---------------------------|----------------------------------|
------------------------------|--------0-----0-------0-----0-----|


  S T T T T S S S S S S T T T T S    S T T T T S S S S S S T T T T S  
--1-------------------------------|--0-------------------------------|
--3-------------------------------|--8-------------------------------|
----------------------------------|----------------------------------|
----0-------0---0---0---0-------0-|----0-------0---0---0---0-------0-|
----------------------------------|----------------------------------|
--------0-----0---0---0-----0-----|--------0-----0---0---0-----0-----|


  S T T T T S S S S S S T T T T S    S T T T T S S S S S S T T T T S  
--6-------------------------------|--5-------------------------------|
--8-------------------------------|--7-------------------------------|
----------------------------------|----------------------------------|
----0-------0---0---0---0-------0-|----0-------0---0---0---0-------0-|
----------------------------------|----------------------------------|
--------0-----0---0---0-----0-----|--------0-----0---0---0-----0-----|


   S T T T T S S S S S S T T T T S     S T T T T S S S S S S T T T T S  
--11-------------------------------|--10-------------------------------|
--13-------------------------------|--11-------------------------------|
-----------------------------------|-----------------------------------|
-----0-------0---0---0---0-------0-|-----0-------0---0---0---0-------0-|
-----------------------------------|-----------------------------------|
---------0-----0-------0-----------|---------0-----0---0---0-----0-----|


   S T T T T S S S S S S T T T T S    H.               H        E.  T T   
--12-------------------------------|---------------|--14----------------||
--14-------------------------------|---------------|--15----------------||
-----------------------------------|---------------|--14----------------||
-----0-------0-------0---0-------0-|--0------------|--------------------||
-----------------5-----------------|--5------------|--------------------||
---------0-------0-----0-----0-----|--0------------|--------------------||

Duration Legend
---------------
W - whole
H - half
Q - quarter
E - 8th
S - 16th
T - 32nd
X - 64th
. - note dotted
|-n-| - n-tuplets

Tablature Legend
----------------
L - tied note
x - dead note
g - grace note
(n) - ghost note
> - accentuded note
NH - natural harmonic
AH - artificial harmonic
TH - tapped harmonic
SH - semi harmonic
PH - pitch harmonic
h - hammer on
p - pull off
b - bend
br - bendRelease
pb - preBend
pbr - preBendRelease
brb - bendReleaseBend
\n/ - tremolo bar dip
\n - tremolo bar dive
-/n - tremolo bar Release up
/n\ - tremolo bar inverted dip
/n - tremolo bar return
-\n - tremolo bar Release down
S - shift slide
s - legato slide
/ - slide into from below or out of upwards
\ - slide into from above or out of downwards
~ - vibrato
W - wide vibrato
tr - trill
TP - tremolo picking
T - tapping
S - slap
P - pop
< - fade in
^ - brush up
v - brush down

2 comments on Passacaglia

I say it every time but

I say it every time but especially on this piece check out the PDF for different fingerings (guitarpro couldn't handle some and handled some very poorly). The PDF has a different set of fingerings some better. And get creative with the fingerings (with a piece like this you'll have to).

This is a very cool piece.

This is a very cool piece. Too bad I can't play it worth a darn.