Login or Register to remove this ad. | Advertise Here

Not Tomorrow (Silent Hill) Guitar Tab

Submitted: Oct 08, 2008 by tylersaintcool (Last updated: Nov 14, 2009)

5
Average: 5 (1 vote)
Download | Listen
Game: Silent Hill
Composer(s): Akira Yamaoka
Style: 2 or more instruments, Transcription

AutoScroll: Slow | Medium | Fast
Not Tomorrow
from Silent Hill
Music by: Akira Yamaoka
Tabbed by: tylersaintcool
Tuning: Standard (E A D G B e)
Key: G Minor
Notes:
I believe the acoustic guitar is played with the fingers.
It just flows easier than playing it with a pick.

Intro/main riff (finger picking):
e|--------------------------------------------------|
B|--------3-----------3-----------3-----------3-----|
G|-----3-----3-----3-----3-----3-----3-----2-----3--| x 10
D|--5-----------3-----------1-----------0-----------|
A|--------------------------------------------------|
E|--------------------------------------------------|

Riff 2 (finger picking):
e|---------------------------------------3-----------|
B|--------3-----6--3-----3---------3--------3--4--3--|
G|-----3-----3--------3---------3-----3--------------|
D|--3------------------------1-----------------------|
A|---------------------------------------------------|
E|---------------------------------------------------|

Riff 2 (finger picking) [continued]:
e|------------------------------------------------|
B|--------3-----6--3-----3------------3-----------|
G|-----3-----3--------3---------3--------3-----3--| x 2
D|--3------------------------1-----1--------1-----|
A|------------------------------------------------|
E|------------------------------------------------|


Begin playing after playing the main riff twice
Keyboard/horn fill 1:
e|--------------------------------------------------------------------------------------|
B|--------------------------------------------------------------------------------------|
G|--5--7----7-7h8-7--5-5-----7---7h8-7--5--3---2---2-3-5--0--2--0h2h3--2---2-3-5--0--2--|
D|--------------------------------------------------------------------------------------|
A|--------------------------------------------------------------------------------------|
E|--------------------------------------------------------------------------------------|

Keyboard/horn fill 1 (continued):
e|-----------------------------------------------------------------------------------|
B|-----------------------------------------------------------------------------------|
G|--7----7-7h8-7--5-5-----7---7h8-7--5--3---2---2-3-5--0--2--0h2h3--2---2-3-5--0--2--|
D|-----------------------------------------------------------------------------------|
A|-----------------------------------------------------------------------------------|
E|-----------------------------------------------------------------------------------|


Keyboard/horn fill 2:
e|--------------------------------------------------------------------|
B|--------6-------------8---6-----------6-----------------------------|
G|--7--7-----7--5-7--7--------7p5h7--7-----7---5--7-----0--2--3--3/5--| x 2
D|--------------------------------------------------------------------|
A|--------------------------------------------------------------------|
E|--------------------------------------------------------------------|

1 comment on Not Tomorrow

This is great!

Wow, I really enjoyed playing this! Good Job!