Login or Register to remove this ad. | Advertise Here

Treasured Love (Legend of Mana) Guitar Tab

Submitted: Oct 02, 2007 by ronito (Last updated: Sep 18, 2009)

0
Download | Listen
Game: Legend of Mana
Composer(s): Yoko Shimomura
Style: Arrangement, Fingerstyle
Series: Mana

AutoScroll: Slow | Medium | Fast
     S S S S S T T T T S S T T T T S S T T T T S
E||------------------------0---------------------|
B||--------------------1-0-----3---1-0-----0---1-|
G||--------0-2-1---2-------------------2---------|
D||----2-4---------------------------------------|
A||----------------------------------------------|
E||--0-------------------------------------------|

  E  S. T S. T S. T S. T S. T S. T S. T
----------------------------------------|
--0--1---------0------------------------|
----------2---------0----2---------0----|
------------------------------4---------|
----------------------------------------|
----------------------------------------|

  S S S S S T T S S S T T T T S S T T T T S
--------------------------------------------|
--3-------2-----0-----0---2---0-------------|
------------------0-3-4---3---0-3---------0-|
--------0-2-1---2---4-----------4-2---4-----|
----2-4-------------------------------------|
--------------------------------------------|

  E  S S E  S. T S T T S S S. T S. T
-------------------------------------|
-----0-2-3-----------------0---------|
--4--0-----------------1-3-----------|
--4------2--4----0-4---2--------4----|
---------------------------4----5----|
-------------------------------------|

  S S S S S T T S S S T T T T S S T T T T S    E  S S E  E  S S S S E  E
--------------------------------------------|-----------------------------|
--0-----------------------------------------|--0--0-1-3-------------------|
----------2-----0-----0---------------------|-----------------------0-----|
------------------2-4-2---4---2-4-----0---2-|--0--2------0----0-2-4----0--|
------0-2-3-2---3---5-----5---3-5-3---------|---------3-----2---3---0--2--|
----3---------------------------------------|-----------------------------|

  S S S S S S S S S S S S E  S S    S S S S S S S S S S S S E  S S
---------------------------------|----------1----------------------|
--------1-3----------------------|--3-1-3-4-------1-3--------------|
--3-2-3-------0-2-3-------0------|------------2-3-------0-2-3------|
------------4-------0-2-4--------|--------------------3------------|
-------------------------------0-|--1--------------------------1-3-|
--3--------------------------3---|---------------------------------|

  S S S S S S S S S S S S S S S S    W
--1-0-1-3-5-----0-1---------------|-------------------|
------------2-3-------0-2-3-------|--3----------------|
--------------------2-----------0-|--2----------------|
--0-------------------------2-3---|--4----------------|
----------------------------------|-------------------|
----------------------------------|-------------------|

  S S S S S T T T T S S T T T T S S T T T T S
------------------------0---------------------|
--------------------1-0-----3---1-0-----0---1-|
--------0-2-1---2-------------------2---------|
----2-4---------------------------------------|
----------------------------------------------|
--0-------------------------------------------|

  E  S. T S. T S. T S. T S. T S. T S. T    S S S S S S S S S S S S S S S S
----------------------------------------|----------3---------------2-------|
--0--1---------0------------------------|--0---------------2---------------|
----------2---------0----2---------0----|----------------0-----------------|
------------------------------4---------|--------0-2-1-2-----------0---0-4-|
----------------------------------------|----2-4-------------0-2-4---4-----|
----------------------------------------|----------------------------------|

  S S S S S S S S S S S S S S S S    S S S S S S S S S S S S S S S S
----------0-----------------------|------0-2-3-2-3-7-------0-2-0-2-5-|
--------------------------3-------|----4-----------------------------|
--0-------------------------------|----------2---------6-7---0-------|
----------------2-4-------------0-|--2---------------0---------------|
------0-2-4-2-4---------1-2-1-2---|----------------------------------|
----3---------------2-4-----------|----------------------------------|

  S S S S S S S S S S S S S S S S    E  E  E  E  E  E  E  E
----------0---0-3---------------2-|-----0--------------------|
------2-3---4---------0-2-3-2-3---|--------3--2--0--3--2--0--|
----4---------------3-------------|--------------------------|
----------4---------------4-------|--------------------------|
--4---------------2---------------|--------------------------|
----------------------------------|--2-----------------------|

  E  E  E  E  E  E  E  E     E  E  E  E  E  E  E  E
--------------------------|--2--0-----------2--0-----|
-----0--2-----------0--3--|--------3--2--3--------3--|
--3-----------1--3--------|--------------------------|
-----------4--------------|--------------4-----------|
--------------------------|--------------------------|
--------------------------|--2-----------------------|

  E  E  E  E  E  E  E  E     E  E  E  E  E  E  E  E
--------0--------------2--|--3--1--------------------|
--2--3--------0--2--3-----|--------4--3--1--4--3--1--|
-----------3--------------|--------------0-----------|
--------------4-----------|--------------------------|
--------------------------|--------------------------|
--2-----------------------|--3-----------------------|

  E  E  E  E  E  E  E  E     E  S S S S S S  S S S S S S S S
--------------------------|-------6-7-6---6-10-6---6---6---6-|
--0--1--3--------0--1--4--|-----9-------9--------9-------9---|
-----------0--2-----------|----------------------------------|
--------------5-----------|---------8----------------8-------|
--------------------------|----------------------------------|
--3-----------------------|--6---------------6---------------|

  E  S S S S S S  S S S S S S S S    S S S S S S S S S S S S S S S S
-------6-7-6---6-10-6---6---6---6-|--7-------0---0-4-2-7-6-4-2-0-2-4-|
-----9-------9--------9-------9---|----0---4---4---------------------|
----------------------------------|--8---6---------------------------|
---------8----------------8-------|----------------------------------|
----------------------------------|----------------------------------|
--6---------------6---------------|----------------------------------|

  E  E  E  E  E  E  E  E     S S S S S S S S S S S S E  S S
--2--4--0--2-----0--------|--------0-2----------------------|
--------------4-----2--4--|--3-2-3-------0-2-3-------0------|
--------------------------|------------3---------1-3--------|
--------------------------|--------------------4------------|
--------------------------|--2--------------------------2-4-|
--------------------------|---------------------------------|

  S S S S S S S S S S S S E  S S    S S S S S S S S S S S S S S S S
--2-0-2-3-5-----0-2--------------|--3-2-3-5-7---0-2-3-------0-------|
------------2-3-------0-2-4------|------------4-------0-2-4---------|
--------------------2------------|----------------------------------|
--0----------------------------1-|--2-------------------------2-0---|
--------------------------2--4---|--------------------------------3-|
---------------------------------|----------------------------------|

  E  E  E  E  E  E  E  E     E  E  E  E  E  E  E  E
--7--5--3--2--0--3--2--0--|-----0--2-----------0--3--|
--------------------------|--4--------0--2--4--------|
--------------------------|--------------------------|
--------------------------|--------------------------|
--------------------------|--------------------------|
--7-----------------------|--------------------------|

  E  E  E  E  E  E  E  E     E  E  E  E  E  E  E  E     H        Q.     S. T
--7--5--0-----0--7--5--0--|-----0--5--------2--3--5--|--7---------------------||
--8--7--8--7--8--8--7--8--|--7--8--7--4--5--4--5--7--|--7---------------------||
-----------8--------------|--8--------4--5-----------|--8--------------------*||
--------------------------|--------------------------|--9--------7------L----*||
--------------------------|--------------------------|------------------------||
--------------------------|--------------------------|------------------------||

  W
-------------------||
-------------------||
--0----------------||
--2----------------||
-------------------||
--0----------------||

Duration Legend
---------------
W - whole
H - half
Q - quarter
E - 8th
S - 16th
T - 32nd
X - 64th
. - note dotted
|-n-|  - n-tuplets

3 comments on Treasured Love

Check out the PDf for

Check out the PDf for different fingerings as always. Everytime I play this I find different ways to play it. So read the sheet and find your best way to do it.

isnt this called "foolish

isnt this called "foolish decision" ?

great tab anyway!

It's called 愚かなる宝愛, which

It's called 愚かなる宝愛, which translates to "Foolish Love of Treasure". (Probably. I don't know the context.)