Login or Register to remove this ad. | Advertise Here

Places of Soul (Legend of Mana) Guitar Tab

Submitted: Oct 02, 2007 by ronito (Last updated: Feb 02, 2011)

4.8
Average: 4.8 (5 votes)
Download | Listen
Game: Legend of Mana
Composer(s): Yoko Shimomura
Style: Arrangement, Fingerstyle
Series: Mana

This song is also called Places of Soul

AutoScroll: Slow | Medium | Fast
     E  E  E  S S E  E.  T T E     E  E  E  S S E  E.  T T E
E||--3--------0-1-3--1---L---0--|---------------1--0---L------|
B||-----------------------------|--3--------0-1------------3--|
G||--------0------2-------------|--------0--------------------|
D||-----2---------3-------------|-----0-----------------------|
A||--3--------3-----------------|-----------0-----------------|
E||---------------1-------------|--3------------4-------------|

  E  E  E  E  E  E  E  E     E  E  E  E  E  E  E  E
--------------------------|--0-----------------------|
--1-----------------0--1--|--------------3--------0--|
--------2--------2--0-----|-----------2--------0-----|
-----2-----------0--------|--------3--------0--------|
--0--------0--------------|-----3--------------------|
--------------3--------3--|--1-----------3-----------|

  E  E  E  S S E  E  E  E      Q.      E   E  E.  T T S S
--3--------0-1-3--8--7--8--|--12----------10--8---L---7-5-|
---------------------------|---0------12------------------|
--------0------2-----------|---0-----------9--------------|
-----2---------3-----------|------------------------------|
--3------------------------|--------------12--------------|
---------------------------|------------------------------|

  Q    Q    Q    Q       Q    Q    Q.     S S
--3----1---------0----|--3----1-----------0---|
--3-------------------|--1------------------3-|
----------------------|-----------------------|
--0-------------------|--3--------------------|
------------4---------|-----------------------|
----------------------|--1---------3----------|

  E  E  S S S  S  E   E   E   E      E   E   S  S  S S  E  E  E   E
--0-------3-8-10-12----------15--|--13---------------8-10--------13--|
--------1------------------------|----------------10-----------------|
-----0---------------------------|-------------10-------------7------|
-------------------------11------|---0------12-------------9---------|
--3------------------12----------|------12-------------10------------|
------------------9--------------|-----------------------------------|

   E  E  Q    E   E   E  E     E  E  E  E  E  E  E  E
--12--0----------10--10--8--|--8--7--7--5--5--3--3--1--|
---------8------------------|--0-----------------------|
----------------------------|--0-----------4-----------|
--10----------7-------------|--------------------------|
--------------8-------------|--------------------------|
----------------------------|--------------3-----------|

  E  E  E  S S E  E.  T T E     E  E  E  S S E  E.  T T E
--3--------0-1-3--1---L---0--|---------------1--0---L------|
-----------------------------|--3--------0-1------------3--|
--------0------2-------------|--------0--------------------|
-----2---------3-------------|-----0-----------------------|
--3--------3-----------------|-----------0-----------------|
---------------1-------------|--3------------4-------------|

  E  E  E  E  E  E  E  E     E  E  E  E  E  E  E  E
--------------------------|--0-----------------------|
--1-----------------0--1--|--------------3--------0--|
--------2--------2--0-----|-----------2--------0-----|
-----2-----------0--------|--------3--------0--------|
--0--------0--------------|-----3--------------------|
--------------3--------3--|--1-----------3-----------|

  E  E  E  S S E  E  E  E      Q.      E   E  E.  T T S S
--3--------0-1-3--8--7--8--|--12----------10--8---L---7-5-|
---------------------------|---0------12------------------|
--------0------2-----------|---0-----------9--------------|
-----2---------3-----------|------------------------------|
--3------------------------|--------------12--------------|
---------------------------|------------------------------|

  Q    Q    Q    Q       Q    Q    Q.     S S
--3----1---------0----|--3----1-----------0---|
--3-------------------|--1------------------3-|
----------------------|-----------------------|
--0-------------------|--3--------------------|
------------4---------|-----------------------|
----------------------|--1---------3----------|

  E  E  S S S  S  E   E   E   E      E   E   S  S  S S  E  E   E   E
--0-------3-8-10-12----------15--|--13---------------8-10---------13--|
--------1------------------------|----------------10-------0----------|
-----0---------------------------|-------------10-------0-------------|
-------------------------11------|---0------12----------------12------|
--3------------------12----------|------12----------------------------|
------------------9--------------|------------------------------------|

   E  E  Q    E   E   E  E     E  E  E  E  E  E  E  E     W
--12--0----------10--10--8--|--8--7--7--5--5--3--3--1--|--0----------------||
---------8------------------|--------------------------|--1----------------||
----------------------------|--0-----------4-----------|--0----------------||
--10----------7-------------|--9-----------------------|--2----------------||
--------------8-------------|--------------------------|--3----------------||
----------------------------|--------------3-----------|-------------------||

Duration Legend
---------------
W - whole
H - half
Q - quarter
E - 8th
S - 16th
T - 32nd
X - 64th
. - note dotted
|-n-|  - n-tuplets

3 comments on Places of Soul

Check out the PDF for

Check out the PDF for different fingerings.

WOW...

WOW...

nice

5

i prefer the other fingering but good job with this song