Login or Register to remove this ad. | Advertise Here

Cosmo Canyon (Final Fantasy VII) Guitar Tab

Submitted: May 23, 2008 by Shade (Last updated: Dec 04, 2010)

5
Average: 5 (3 votes)
Download | Listen
Game: Final Fantasy VII
Composer(s): Nobuo Uematsu
Style: Arrangement
Series: Final Fantasy

This song is also called Valley of the Fallen Star

AutoScroll: Slow | Medium | Fast
Valley of the Fallen Star
FFVII

Use as many bends as you feel like.  The more bendy the sound, the better.  
Also, in the intro, its an E minor/A minor combo, so if you throw in a 
bunch of open notes here and there it will always sound good.


intro
e----------------|-----------------|---------------|-----------------|
B----------------|-----------------|---------------|-----------------|
G----------------|-----------------|---0-2--2-2-2--|-----------------|
D---0--0-2-2-2-2-|----0--0-2-2-2-2-|---2----0---0--|---0--0-2-2-2-2--|
A-2----2---2---2-|--2----2---2---2-|---------------|-2----2---2---2--|
E----------------|-----------------|---------------|-----------------|


main
e-------------------|--------------------------|------------------|---------------0--|
B-------------------|-------------0------------|---------0--------|---------------0--|
G-----------------0-|--0--2-0--s4-4-4-2-0-2-s4-|--2-0-2-----0-----|---0-----------0--|
D---0-2-2-2~-0-2----|--0--0-----0---------0----|--2-----------2-2-|-0-0-2-0-2--------|
A-2---2~~-2----2----|--------------------------|----------------0-|-0-------2--------|
E-------------------|--------------------------|------------------|------------------|

e-----0-0-0-2--0----|------0-0-3-2-0----|--------------------------|
B-0-3-0-----0----3--|--0-3-0---------3--|--------0-1-0-1-3-0-------|
G-0--------------4--|--0-------------2--|--2-0-2---2-------0----4--|
D-------------------|-------------------|--2--------------------4--|
A-------------------|-------------------|--------------------------|
E-------------------|-------------------|--------------------------|

e-----0-0-0-2--0----|------0-0-3-2-0----|------------------0-------|--3p0--0--|
B-0-3-0-----0----3--|--0-3-0---------3--|--------0-1-0-1-3-0-----4-|-------0--|
G-0--------------4--|--0-------------2--|--2-0-2---2-------------4-|-------0--|
D-------------------|-------------------|--2-----------------------|-------2--|
A-------------------|-------------------|--------------------------|-------2--|
E-------------------|-------------------|--------------------------|-------0--|

2 comments on Cosmo Canyon

Booya!

5

That is awesome! I don't remember seeing this...

I think the last measure's a

5

I think the last measure's a little off, but very nice~