Login or Register to remove this ad. | Advertise Here

Cosmo Canyon (Final Fantasy VII) Guitar Tab

Submitted: Sep 09, 2008 by moneyball32 (Last updated: Dec 04, 2010)

3
Average: 3 (2 votes)
Download | Listen
Game: Final Fantasy VII
Composer(s): Nobuo Uematsu
Style: Transcription
Series: Final Fantasy

This song is also called Valley of the Fallen Star

AutoScroll: Slow | Medium | Fast
		 Final Fantasy VII - Cosmo Canyon
			Composer: Nobuo Uematsu
			     Year: 1997
			Tabbed by: Steve Herlin

I've only been playing guitar for 3 months and I started playing 
this song on accident.  I've never made a tab before, 
so I hope it's up to your standards!

e ||-----0-0-0-------0-3---0-3-5-7---7---7----5-3-5---7------|
B ||-0-3---------3-------------------------------------------|
G ||---------------------------------------------------------|
D ||---------------------------------------------------------|
A ||---------------------------------------------------------|
E ||---------------------------------------------------------|


-5---3-5---7-5-0-0--------3-0---0-|
---------------------3-------3----|
----------------------------------|	x2
----------------------------------|
----------------------------------|
----------------------------------|


|-7--10--12--12--12--14---12-10-----7-10-12--12--15-14---12-
|-----------------------------------------------------------
|-----------------------------------------------------------
|-----------------------------------------------------------
|-----------------------------------------------------------
|-----------------------------------------------------------


-10----7--10-----5----3-5-7----8----7-8-10----7--------
-------------------------------------------------------
-------------------------------------------------------
-------------------------------------------------------
-------------------------------------------------------
-------------------------------------------------------


-7--10--12--12--12--14---12-10-----7-10-12--12--15-14---12-
-----------------------------------------------------------
-----------------------------------------------------------
-----------------------------------------------------------
-----------------------------------------------------------
-----------------------------------------------------------


-10----7--10-----5----3-5-7----8----7-8-10----12--------
--------------------------------------------------------
--------------------------------------------------------
--------------------------------------------------------
--------------------------------------------------------
--------------------------------------------------------


-15--12----12---------||
----------------------||
----------------------||
----------------------||
----------------------||
----------------------||