Login or Register to remove this ad. | Advertise Here

Cid's Theme (Final Fantasy VII) Guitar Tab

Submitted: Apr 04, 2009 by afonso_teles (Last updated: Feb 03, 2010)

5
Average: 5 (5 votes)
Download | Listen
Game: Final Fantasy VII
Composer(s): Nobuo Uematsu
Style: Arrangement, Fingerstyle
Series: Final Fantasy

AutoScroll: Slow | Medium | Fast
Final Fantasy VII - Cid's Theme
Arranged by Afonso Teles


Bpm = 90


      S S Q    E  Q    Q       S S Q    E  Q    Q       S S Q    E  Q    Q     
E||---------------3---------|--3-----------3----5----|--6---------------------|
B||---1----------------6----|------------------------|-----------8------------|
G||*--0---------------------|------------------------|--------------7---------|
D||*------------------------|--5----------------5----|--5---------------------|
A||---3-3-3----3-------5----|--6-6-6----6-------6----|--5-5-5----5-------5----|
E||-------------------------|------------------------|------------------------|


  S S Q    Q.     Q       S S Q    E  Q    Q       S S Q    E  Q    Q     
-----------------------|--------------5---------|--5-----------5----7----|
-----------------------|-------------------8----|------------------------|
-----------------------|--7---------------------|------------------------|
--5--------------------|--7---------------------|--7----------------7----|
--5-5-5----5------5----|--5-5-5----5-------7----|--8-8-8----8-------8----|
-----------------------|------------------------|------------------------|


  S S Q     E  Q    Q       S S Q    E   Q     Q     
--8----------------------|--------------------------|
-----------10------------|--------------10-----8----|
---------------9---------|--------------------------|
--7----------------------|--7-----------------------|
--7-7-7-----7-------7----|--7-7-7----7--------10----|
-------------------------|--------------------------|


   S S Q     E  Q    E   E      S  S  Q     E   Q     Q     
----------------8-------10--|--11--------------10----13----|
--10--------12--------------|---9--------------------------|
----------------------------|------------------------------|
--10------------------------|-------------------------8----|
---8-8-8-----8-------8------|--11-11-11----11--------------|
----------------------------|------------------------------|


   S  S  Q     E   Q     Q        S  S  Q     Q.      Q     
--11--------------------------|----------------------------|
--------------13--------------|----------------------------|
--12--------------12----------|--12------------------------|
--10-10-10----10--------10----|--10-10-10----10------10----|
------------------------------|----------------------------|
------------------------------|----------------------------|


   S S Q    E  Q    Q       S S Q    E  Q     Q       S S Q    Q.     Q     
--10--------6------------|-------------------------|-----------------------|
---8-----------8---------|--8-----------6-----9----|--8--------------------|
-------------------------|-------------------------|--7--------------------|
---8-8-8----8-------8----|--8-8-8----8--6----10----|--9-9-9----9------9----|
-------------------------|-------------------------|-----------------------|
-------------------------|-------------------------|-----------------------|


  S S Q    Q.     Q         S S Q    E  E  E  E  E     S S Q    E  Q    Q     
------------------------||--------------------------|--6---------------------|
------------------------||--------------8--6--8--9--|-----------8------------|
--7--------------------*||--7-----------------------|--------------8---------|
--9-9-9----9------9----*||--9-9-9----9--------9-----|--8---------------------|
------------------------||--------------------------|--6-6-6----6-------6----|
------------------------||--------------------------|------------------------|


  S S Q    E  E  E  E  E      S S Q    E   Q    Q     
-----------------------6--|---------------11---------|
--------------9--8--9-----|---8----------------------|
--------------------------|------------8-------------|
--8-----------------------|--------------------------|
--5-5-5----5--------5-----|--10----------------------|
--------------------------|---8-8-8----8--------8----|


  S S Q    E   E  E   E   E     S S Q    Q.     Q     
--------------10--8--10--11--|--4--------------------|
-----------------------------|-----------------------|
-----------------------------|-----------------------|
-----------------------------|-----------------------|
--8--------------------------|--6--------------------|
--6-6-6----6----------6------|--4-4-4----4------4----|


  S S Q    E  E  E  E  E     S S E  E  Q.     Q       S S Q    Q.     Q     
--------------------------|---------6--------------|-----------------------|
--------------6--8--9--6--|--8---------------------|------------------8----|
--------------------------|------------------------|-----------------------|
--------------------------|--8---------------------|-----------------------|
--8-----------------------|--6-6-6-----6------6----|--8--------------------|
--6-6-6----6--------6-----|------------------------|--6-6-6----6------6----|


  S S Q    E  Q    Q       S S Q    E  E  E  E  E      S S Q    E   Q    Q     
--6---------------------|-----------------------6--|---------------11---------|
-----------8------------|--------------9--8--9-----|---8----------------------|
--------------8---------|--------------------------|------------8-------------|
--8---------------------|--8-----------------------|--------------------------|
--6-6-6----6-------6----|--5-5-5----5--------5-----|--10----------------------|
------------------------|--------------------------|---8-8-8----8--------8----|


  S S Q    E   E  E   E   E      Q.      E   Q     Q     
--------------10--8--10--11--|--15------11--------------|
-----------------------------|--------------13----------|
-----------------------------|--12----------------------|
-----------------------------|--------------------------|
--8--------------------------|--11----------------11----|
--6-6-6----6----------6------|--------------------------|


                            ^                  
   H         Q.      E      W                  
------------10------11--|--11----------------||
---9--------------------|--11----------------||
--10--------------------|--------------------||
---8--------------------|--------------------||
------------------------|--10----------------||
------------------------|--11----------------||




Duration Legend
---------------
W - whole
H - half
Q - quarter
E - 8th
S - 16th
T - 32nd
X - 64th
. - note dotted
|-n-|  - n-tuplets


Tablature Legend
----------------
L - tied note
x - dead note
g - grace note
(n) - ghost note
> - accentuded note
NH - natural harmonic
AH - artificial harmonic
TH - tapped harmonic
SH - semi harmonic
PH - pitch harmonic
h - hammer on
p - pull off
b - bend
br - bendRelease
pb - preBend
pbr - preBendRelease
brb - bendReleaseBend
\n/ - tremolo bar dip
\n - tremolo bar dive
-/n - tremolo bar Release up
/n\ - tremolo bar inverted dip
/n - tremolo bar return
-\n - tremolo bar Release down
S - shift slide
s - legato slide
/ -  slide into from below or out of upwards
\ -  slide into from above or out of downwards
~ - vibrato
W - wide vibrato
tr - trill
TP - tremolo picking
T - tapping
S - slap
P - pop
< - fade in
^ - brush up
v - brush down

3 comments on Cid's Theme

great

5

nice tab bro^^

brilliant

5

this is just what i've been looking for!

it looks hard though it'll take awhile to learn

Let me try one more time

5

Let me try one more time after I drink my GODDAMN TEA!!!%$#$#