Login or Register to remove this ad. | Advertise Here

Anxious Heart (Final Fantasy VII) Guitar Tab

Submitted: Aug 30, 2008 by TheDoomOfAllFires (Last updated: Oct 31, 2009)

5
Average: 5 (9 votes)
Download | Listen
Game: Final Fantasy VII
Composer(s): Nobuo Uematsu
Style: Arrangement, Fingerstyle
Series: Final Fantasy

AutoScroll: Slow | Medium | Fast
Final Fantasy VII - Anxious Heart
Re-arranged by TheDoomOfAllFires; 03/08/2009


Standard Tuning
Bpm=70

Capo = 1


      ^                   ^                   ^                  
      W                   W                   H        H         
E||---0----------------|-------------------|--0--------2--------|
B||---0----------------|--2----------------|--0-----------------|
G||*-------------------|--1----------------|-----------1--------|
D||*-------------------|-------------------|--2-----------------|
A||--------------------|--4----------------|--------------------|
E||---0----------------|-------------------|--------------------|


  ^                   ^                   ^                 
  W                   W                   W                 
-------------------|-------------------|-------------------|
--2----------------|--3----------------|--0----------------|
--1----------------|--2----------------|-------------------|
-------------------|--4----------------|--4----------------|
--4----------------|--5----------------|--2----------------|
-------------------|-------------------|-------------------|


  ^        ^           ^        ^           ^                          
  H        H           H        H           E  E  E   E  E  E  E   E   
-----------0--------|--------------------|----------------------------|
--3--------0--------|--0--------0--------|--0------------0-----3p--2--|
--4-----------------|--------------------|--------0h--2-----2---------|
--5--------2--------|--2--------1--------|-----2----------------------|
--5-----------------|--2--------2--------|--2-------------------------|
--------------------|--------------------|--0-------------------------|


  ^                      ^                          
  Q.     Q    Q    E     E  E  E   E  E  E  E   E   
--0-------------------|----------------------------|
---------2------------|--0------------0-----3p--2--|
--1------1----1-------|--------0h--2-----2---------|
--------------2----2--|-----2----------------------|
--4-------------------|--2-------------------------|
----------------------|--0-------------------------|


  ^                                                      
  E  E   E  E  E   E  E  E     E  E  E  E  E   E  E  E   
--0-------------------------|--0------------------------|
-----4p--2------------------|---------------------3--0--|
--1---------1---------------|---------------------0-----|
---------------2p--1--------|--------------2s--4--------|
--4-------------------4-----|-----------2---------------|
-------------------------4--|--0--2--3------------------|


  ^                                                    
  E  E  E  E  E  E  E  E     E  E  E  E  E   E  E  E   
--------------------------|--0------------------2-----|
--2-----------------------|------------------------0--|
--1--1--------------------|---------------------0-----|
--------2--1-----------2--|--------------2s--4--------|
--4-----------4-----------|-----------2---------------|
-----------------4--0-----|--0--2--3------------------|


  ^                          ^                        
  E  E  E  E  E  E  E  E     E  E  E  E  E  E  E  E   
--------------------------|--------------------------|
--2-----------------------|--3-----------------0--3--|
--1--1--------------------|--------------0--2--------|
--------2--1-----------2--|--0--------0--------------|
--4-----------4-----------|-----0--2-----------------|
-----------------4--0-----|--3-----------------------|


  ^                          ^                          ^                      
  E  E  E  E  E  E  E  E     E  E  E  E  E  E  E  E     E  E  E  E   H         
--------------------------|--------------------0-----|------------------------|
--4--2--------------------|--3-----------------0--3--|--4--2------------------|
--------4-----------------|--------------0--2--------|--------4---------------|
--4--------4--1-----------|--0--------0--------------|--4--------4p--1--------|
--2--------------4--2-----|-----0--2-----------------|--2---------------------|
-----------------------2--|--3-----------------------|------------------------|


  E  E  E  Q    E  E  E     E   E  E   E   H           E  E  E  Q    E  E  E   
--7----------------------|------------10~--L--------|--7----------------------|
--------7--9----------7--|--9p--7-------------------|--------7--9-------7--9--|
-----9-----9-------9-----|---------7----------------|-----9-----9----9--------|
----------------9--------|--0--------------L--------|-------------------------|
--7----------------------|--------------------------|--7----------------------|
-------------------------|--------------------------|-------------------------|


   E   E  E   E   H           E  E  E  Q    E  E  E   
---------------------------|--7----------------------|
--10p--8-------------------|--------7--9----------7--|
----------9----------------|-----9-----9-------9-----|
-------------10~--L--------|----------------9--------|
---------------------------|--7----------------------|
---8--------------L--------|-------------------------|


                                                    ^                 
  E   E  E   E   H           Q    Q    Q    Q       W                 
------------10~--L--------|-----------------0----|-------------------|
--9p--7-------------------|-------3----2---------|--3----------------|
---------7----------------|-------2--------------|-------------------|
--0--------------L--------|-----------------2----|--0----------------|
--------------------------|------------4----0----|-------------------|
--------------------------|--0-------------------|--3----------------|


                         ^                   
  Q    Q    Q    Q       W                 3x
-----------------0----|--------------------||
-------3----2---------|--3-----------------||
-------2--------------|-------------------*||
-----------------2----|--0----------------*||
------------4----0----|--------------------||
--0-------------------|--3-----------------||




Duration Legend
---------------
W - whole
H - half
Q - quarter
E - 8th
S - 16th
T - 32nd
X - 64th
. - note dotted
|-n-|  - n-tuplets

5 comments on Anxious Heart

Re: Anxious Heart

Sweet man!
I have no idea how long this is going to take for me to get down but from what I can play, this is awsome!
Good work, loving your Aeris' them as well!

Re: Anxious Heart

Thanks ^^

Wow This Is Actually Like. .

5

Wow
This Is Actually Like. . Amazing (:
I Spent Ages Trying To Find This Song

Good, have you considered

Good, have you considered capoing the first fret? Just looking over the tabs it seems like it would make it easier to play.

That was my first

That was my first arrangement, so I haven't considered about capoing.
I'm going to update this tab.