Login or Register to remove this ad. | Advertise Here

Ahead On Our Way (Final Fantasy VII) Guitar Tab

Submitted: Aug 23, 2008 by superubercool

5
Average: 5 (4 votes)
Download | Listen
Game: Final Fantasy VII
Composer(s): Nobuo Uematsu
Style: 2 or more instruments, Transcription
Series: Final Fantasy

AutoScroll: Slow | Medium | Fast
#----------------------------------PLEASE NOTE---------------------------------#
#This file is the author's own work and represents their interpretation of the #
#song. You may only use this file for private study, scholarship, or research. #
#------------------------------------------------------------------------------#

FINAL FANTASY VII - AHEAD ON OUR WAY
As recorded by Nobuo Uematsu
(From the 1998 Boxset FFVII OST)
Transcribed by Craig Cameron
Music by Nobuo Uematsu
Arranged by Nobuo Uematsu
8/21/08
 

Gtr I (D A D G B E) - 'Drop-D Acoustic Backing'
Gtr II (E A D G B E) - 'Piccolo Lead'
Gtr III (E A D G B E) - 'Strings Backing'
Gtr IV (E A D G B E) - 'Trombone Lead'
Gtr V (E A D G B E) - 'Oboe Backing'


 Intro/Melody 1
  Q=67
  G/D                 Em/G
 4/4
  Gtr I
|-----------3-------|---------0-------|
|------0--------0---|-----0-------0---|
|----0---0----0---0-|---0---0---0---0-|
|-------------------|-----------------|
|-------------------|-----------------|
|--5----------------|-2---------------|
|
| Gtr II
|-------------------|-----------------|
|-10-8-7-8-10-------|-7---------------|
|-----------------7-|---9-9-----------|
|---------------9---|-----------------|
|-------------------|-----------------|
|-------------------|-----------------|
|
| Gtr III
|--7----------------|-0---------------|
|--8----------------|-0---------------|
|--7----------------|-0---------------|
|-------------------|-----------------|
|-------------------|-----------------|
|-------------------|-----------------|


             D/A          Bm
|----------0--------2---|----------2--------|
|--------1--------3-----|------3-------3----|
|-----2---------2-------|----4---4---4---4--|
|-----------------------|-------------------|
|--0--------------------|--2----------------|
|-------------0---------|-------------------|
|
|-----7-------------7-9-|-10-7-7------------|
|-------10-8-10---------|-------------------|
|--9--------------------|-------------------|
|-----------------------|-------------------|
|-----------------------|-------------------|
|-----------------------|-------------------|
|
|-(0)---------2---------|--2----------------|
|-(0)---------3---------|--3----------------|
|-(0)---------2---------|--4----------------|
|-----------------------|-------------------|
|-----------------------|-------------------|
|-----------------------|-------------------|


  Cm       Eb/G       G/B
|--------3--------3-|--------3-------0-|
|-----4--------4----|------------------|
|---5--------3------|------4-------4---|
|-------------------|---5--------5-----|
|-3--------3--------|------------------|
|-------------------|-5--------2-------|
|
|-7-8-7-------------|-7----------------|
|-------10-8-----10-|----------7-------|
|-------------------|--------7---9-9---|
|-------------------|---9-10-----------|
|-------------------|------------------|
|-------------------|------------------|
|
|-3--------3--------|-7----------------|
|-4--------4--------|-8----------------|
|-5--------0--------|-4----------------|
|-------------------|------------------|
|-------------------|------------------|
|-------------------|------------------|


                       Am          D/A
|------------0-------|-------------------2-|
|-------1--------1---|-----------1-----3---|
|-----2---2----2---2-|---------2-----2-----|
|--------------------|------2------0-------|
|--0-----------------|---0-----------------|
|--------------------|---------------------|
|
|--------------------|-----------7-8-------|
|-------7-8-10-------|-(10)-8-10-----------|
|-(9)-9--------------|---------------------|
|--------------------|---------------------|
|--------------------|---------------------|
|--------------------|---------------------|
|
|-(7)----------------|---0---------2-------|
|-(8)----------------|---1---------3-------|
|-(4)----------------|---2---------2-------|
|--------------------|---------------------|
|--------------------|---------------------|
|--------------------|---------------------|


  G                      G/E       B5/E
|-----------3----------|-----------0---------|
|------0----------0----|------0---------0----|
|----0---0----0------0-|---0-----0---0-----0-|
|----------------------|---------------------|
|----------------------|---------------------|
|--5-------------------|-2-------------------|
|
|----------------------|---------------------|
|-10-8-7-8-10----------|-7-------------------|
|--------------------7-|---9--9--------------|
|-----------------9----|---------------------|
|----------------------|---------------------|
|----------------------|---------------------|
|
|  <              >      <    >    <    >
|-10------------(10)---|-7---(7)---7---(7)---|
|-12------------(12)---|-8---(8)---7---(7)---|
|-12------------(12)---|-9---(9)---9---(9)---|
|----------------------|---------------------|
|----------------------|---------------------|
|----------------------|---------------------|


  C/A         Dsus2/A         D/B
|-----------0-----------2---|----------2----------|
|--------1-----------3------|------3---------3----|
|----2-----------2----------|----4---4---4------4-|
|---------------------------|---------------------|
|--0------------------------|--2------------------|
|--------------0------------|---------------------|
|
|----7------------------7-9-|-10-7-7--------------|
|-------10--8-10------------|---------------------|
|--9------------------------|---------------------|
|---------------------------|---------------------|
|---------------------------|---------------------|
|---------------------------|---------------------|
|
|  <     >     <     >         <             >
|-12---(12)---12---(12)-----|-14-----------(14)---|
|-13---(13)---15---(15)-----|-15-----------(15)---|
|-14---(14)---14---(14)-----|-16-----------(16)---|
|---------------------------|---------------------|
|---------------------------|---------------------|
|---------------------------|---------------------|


  G                       G/D       Em/G
|---------3-----------3-|---------3-----------0-|
|------4----------4-----|------0-----------0----|
|----5--------3---------|---0----------0--------|
|-----------------------|-----------------------|
|--3--------3-----------|-----------------------|
|-----------------------|-5----------2----------|
|
|--7-8-7----------------|-7---------------------|
|--------10-8--------10-|------------7----------|
|-----------------------|---------7----9---9----|
|-----------------------|---9-10----------------|
|-----------------------|-----------------------|
|-----------------------|-----------------------|
|
|  <              >       <    >     <     >
|-10------------(10)----|-7---(7)---12---(12)---|
|-12------------(12)----|-8---(8)---12---(12)---|
|-12------------(12)----|-7---(7)---12---(12)---|
|-----------------------|-----------------------|
|-----------------------|-----------------------|
|-----------------------|-----------------------|


  Am/E                    G
|---------------------2-|----------3----------|------------3-------|
|---------1--------3----|------0---------0----|--------0-------0---|
|-------2------2--------|----0---0---0------0-|------0---0---0---0-|
|----2-------0----------|---------------------|--------------------|
|--0--------------------|---------------------|--------------------|
|-----------------------|--5------------------|---5----------------|
|
|                                                 >
|----7------------------|---------------------|--------------------|
|------10-8-10--------7-|--7-8-8--------------|--(8)---------------|
|--9--------------------|---------------------|--------------------|
|-----------------------|---------------------|--------------------|
|-----------------------|---------------------|--------------------|
|-----------------------|---------------------|--------------------|
|
|  <               >       <                      >
|--8--------------(8)---|-10-----------(10)---|-(10)---------------|
|-10-------------(10)---|-12-----------(12)---|-(12)---------------|
|--9--------------(9)---|-12-----------(12)---|-(12)---------------|
|-----------------------|---------------------|--------------------|
|-----------------------|---------------------|--------------------|
|-----------------------|---------------------|--------------------|


 Melody 2
  D                  G                 C                 G
|----------3-------|---------0-------|---------0-------|--------3-------2-|
|------0-------0---|-----0-------0---|-----1-------1---|------0-------3---|
|----0---0---0---0-|---0---0---0---0-|---2---2---2---2-|----2-------2-----|
|------------------|-----------------|-----------------|--0-------0-------|
|------------------|-----------------|-0---------------|------------------|
|--5---------------|-2---------------|-----------------|------------------|
|
| Gtr IV
|------------------|-----------------|-----------------|------------------|
|------------------|-----------------|---------5-------|------------------|
|--------4-7---4---|-----------------|-----4-5---5-----|------------------|
|--4-5-7---------5-|-4---------------|-6-7-----------7-|--5-------4-------|
|------------------|-----7-----------|-------------7---|------------------|
|------------------|-----------------|-----------------|------------------|
|
| Gtr V
|-10---------------|-3---------------|-8---------------|-15---------------|
|------------------|-----------------|-----------------|------------------|
|--7---------------|-0---------------|-5---------------|-12---------------|
|------------------|-----------------|-----------------|------------------|
|------------------|-----------------|-----------------|------------------|
|------------------|-----------------|-----------------|------------------|


  D/B                   G/D
|----------2----------|---------3---------|
|------3---------3----|-----0--------0----|
|----4---4---4------4-|---0---0---0-----0-|
|---------------------|-------------------|
|--2------------------|-------------------|
|---------------------|-5-----------------|
|
| Gtr II
|---------------------|-5---5-7-----------|
|----------7-----5--7-|---8-----5---------|
|----4-6-7---7--------|-------------------|
|--7------------------|-------------------|
|---------------------|-------------------|
|---------------------|-------------------|
|
| Gtr III
|  <             >      <            >
|-14-----------(14)---|-7-----------(7)---|
|-15-----------(15)---|-8-----------(8)---|
|-16-----------(16)---|-7-----------(7)---|
|---------------------|-------------------|
|---------------------|-------------------|
|---------------------|-------------------|


  C/A                   Em7/G
|----------0----------|----------3----------|
|------1---------1----|------3---------3----|
|----2---2---2------2-|----2---2---2------2-|
|---------------------|--0------------------|
|--0------------------|---------------------|
|---------------------|---------------------|
|
|---------------------|---------------------|
|--5------------------|---------------------|
|----4-5--------------|--------4-5-----7--5-|
|--------6-7----------|----6-7--------------|
|---------------------|---------------------|
|---------------------|---------------------|
|
|  <             >       <             >
|-12-----------(12)---|-12-----------(12)---|
|-13-----------(13)---|-15-----------(15)---|
|-14-----------(14)---|-12-----------(12)---|
|---------------------|---------------------|
|---------------------|---------------------|
|---------------------|---------------------|


 Melody 3
                                                                       D.C.
  G                  Em/G               C/A                  D
|----------3-------|----------0-------|-----------0--------|---------2-------|
|------0-------0---|------0-------0---|------1---------1---|-----3-------3---|
|----0---0---0---0-|----0---0---0---0-|----2---2-----2---2-|---2---2---2---2-|
|------------------|------------------|--------------------|-0---------------|
|------------------|------------------|--0-----------------|-----------------|
|--5---------------|--2---------------|--------------------|-----------------|
|
|            Gtrs II, IV
|------------------|------------------|--------------------|-----------------|
|------------------|------------------|--5-------(5)-------|-----------------|
|--4-----------4---|------------------|--------------5-----|-----------------|
|----------------5-|--4---4-5---------|----------------7-5-|-4-----5-7-------|
|------------------|----7-----7-------|--------------------|-----------------|
|------------------|------------------|--------------------|-----------------|
|
| Gtrs IV, V
|-15---------------|-12---------------|-12-----------------|-5---------------|
|-12---------------|-12---------------|-13-----------------|-7---------------|
|-12---------------|-12---------------|-14-----------------|-7---------------|
|------------------|------------------|--------------------|-----------------|
|------------------|------------------|--------------------|-----------------|
|------------------|------------------|--------------------|-----------------|


 Outro
  G/D                 Em/G
|-----------3-------|---------0-------|
|------0--------0---|-----0-------0---|
|----0---0----0---0-|---0---0---0---0-|
|-------------------|-----------------|
|-------------------|-----------------|
|--5----------------|-2---------------|
|
| Gtr II
|-------------------|-----------------|
|-10-8-7-8-10-------|-7---------------|
|-----------------7-|---9-9-----------|
|---------------9---|-----------------|
|-------------------|-----------------|
|-------------------|-----------------|
|
| Gtr III
|--7----------------|-0---------------|
|--8----------------|-0---------------|
|--7----------------|-0---------------|
|-------------------|-----------------|
|-------------------|-----------------|
|-------------------|-----------------|


             D/A          Bm
|----------0--------2---|----------2-------*|
|--------1--------3-----|------3-------3---*|
|-----2---------2-------|----4---4---4---4-*|
|-----------------------|------------------*|
|--0--------------------|--2---------------*|
|-------------0---------|------------------*|
|
|-----7-------------7-9-|-10-7-7-----------*|
|-------10-8-10---------|------------------*|
|--9--------------------|------------------*|
|-----------------------|------------------*|
|-----------------------|------------------*|
|-----------------------|------------------*|
|
|-(0)---------2---------|--2---------------*|
|-(0)---------3---------|--3---------------*|
|-(0)---------2---------|--4---------------*|
|-----------------------|------------------*|
|-----------------------|------------------*|
|-----------------------|------------------*|




--------------------------------------------------------------------------------


Tablature Legend
----------------
 h   - hammer-on
 p   - pull-off
 b   - bend
 pb  - pre-bend
 r   - bend release (if no number after the r, then release immediately)
 /\  - slide into or out of (from/to "nowhere")
 s   - legato slide
 S   - shift slide
 - natural harmonic
[n]  - artificial harmonic
n(n) - tapped harmonic
 ~   - vibrato
 tr  - trill
 T   - tap
 TP  - trem. picking
 PM  - palm muting
\n/  - tremolo bar dip; n = amount to dip
 \n  - tremolo bar down
 n/  - tremolo bar up
/n\  - tremolo bar inverted dip
 =   - hold bend; also acts as connecting device for hammers/pulls
 <> - volume swell (louder/softer)
 x   - on rhythm slash represents muted slash
 o   - on rhythm slash represents single note slash

Misc Legend
-----------
 |  - bar
||  - double bar
||o - repeat start
o|| - repeat end
*|  - double bar (ending)
 :  - bar (freetime)
 $  - Segno
 &  - Coda
Tempo markers -  = BPM(8/16=s8/s16), where s8 = swing 8ths, s16 = swing 16ths

2 comments on Ahead On Our Way

Wow that's some intense

Wow that's some intense tabbing! Did this take you long? I am very, very impressed.

Niice (;

Niice (;