Login or Register to remove this ad. | Advertise Here

Kuja's Theme (Final Fantasy IX) Guitar Tab

Submitted: Oct 21, 2008 by TheDoomOfAllFires (Last updated: Nov 14, 2009)

5
Average: 5 (5 votes)
Download | Listen
Game: Final Fantasy IX
Composer(s): Nobuo Uematsu
Style: Arrangement, Fingerstyle
Series: Final Fantasy

AutoScroll: Slow | Medium | Fast
Final Fantasy IX
Arranged by TheDoomOfAllFires, 10/17/2008


Standard tuning
Bpm=120




      E  E  E  E  E  E     E  E  E  E  E  E     E  E  E  E  E  E   
E||---------------------|--------------------|--------------------|
B||---2--------1-----1--|--2--------3-----3--|--2-----2--2-----2--|
G||*-----2--------2-----|-----2--------2-----|-----2--------2-----|
D||*--------4-----------|--------4-----------|--------------------|
A||---------------------|--------------------|-----------4--------|
E||---2-----------------|--2-----------------|--2-----------------|


  E  E  E  E   E  E     E  E   E   E  E   E     E  E   E   E  E   E   
--2--------5p--2-----|--8----------8---------|--8----------8---------|
-----2------------2--|-----------------------|-----------------------|
---------------------|-----8----------8------|-----8----------8------|
--------4------------|--------10---------10--|--------10---------10--|
-----------4---------|------------10---------|------------10---------|
--2------------------|--8--------------------|--8--------------------|


  E  E   E   E  E   E     E  E   E   E  E   E     E  E  E  E  E  E   
--8----------8---------|--8----------8---------|--6--------6--------|
-----------------------|-----------------------|-----3--------3-----|
-----8----------8------|-----8----------8------|--------3--------3--|
--------10---------10--|--------10---------10--|--------------------|
------------10---------|------------10---------|-----------5--------|
--8--------------------|--8--------------------|--3-----------------|


  E  E  E  E  E  E     E  E  E  E  E  E     E  E  E  E  E  E   
--6--------6--------|--6--------6--------|--6--------6--------|
-----3--------3-----|-----3--------3-----|-----3--------3-----|
--------3--------3--|--------3--------3--|--------3--------3--|
--------------------|--------------------|--------------------|
-----------5--------|-----------5--------|-----------5--------|
--3-----------------|--3-----------------|--3-----------------|


  E  E  E  E  E  E     E  E  E  E  E  E     E  E  E  E  E  E   
--5--------4--------|--5--------6--------|--5--------5--------|
-----6--------6-----|-----6--------6-----|-----6--------6-----|
--------7--------7--|--------7--------7--|--------7--------7--|
--0-----------------|--0-----------------|--0-----------------|
-----------0--------|-----------0--------|-----------0--------|
--------------------|--------------------|--------------------|


   E   E   E   E    E   E      E   E   E   E   E   E   
--10----------13p--10------|--16----------16----------|
------10---------------10--|------13----------13------|
---------------------------|----------13----------13--|
----------12---------------|--------------------------|
--------------10-----------|--------------15----------|
--10-----------------------|--13----------------------|


   E   E   E   E   E   E      E   E   E   E   E   E   
--16----------16----------|--16----------16----------|
------13----------13------|------13----------13------|
----------13----------13--|----------13----------13--|
--------------------------|--------------------------|
--------------15----------|--------------15----------|
--13----------------------|--13----------------------|


   E   E   E   E   E   E     E  E  E   E  E  E     E  E  E  E  E  E   
--16----------16----------|---------------------|-----------1--------|
------13----------13------|--4-----4p--3-----3--|--4-----4-----1-----|
----------13----------13--|-----0---------0-----|-----0-----------0--|
--------------------------|---------------------|--------------------|
--------------15----------|---------------------|--------------------|
--13----------------------|--3------------------|--3-----------------|


  E  E  E  E  E  E     E  E  E  E  E  E     E  E  E  E  E  E   
--------------------|--3--------6--3-----|--9--------9--------|
--4-----4--4-----4--|-----4-----------4--|-----6--------6-----|
-----0--------0-----|--------0-----------|--------6--------6--|
-----------1--------|--------------------|--------------------|
--------------------|-----------6--------|-----------8--------|
--3-----------------|--3-----------------|--6-----------------|


  E  E  E  E  E  E     E  E  E  E  E  E     E  E  E  E  E  E   
--9--------9--------|--9--------9--------|--9--------9--------|
-----6--------6-----|-----6--------6-----|-----6--------6-----|
--------6--------6--|--------6--------6--|--------6--------6--|
--------------------|--------------------|--------------------|
-----------8--------|-----------8--------|-----------8--------|
--6-----------------|--6-----------------|--6-----------------|


  E  E  E  E  E  E     E  E  E  E  E  E     E  E  E  E  E  E   
--6--------6--------|--6--------6--------|--6--------6--------|
-----3--------3-----|-----3--------3-----|-----3--------3-----|
--------3--------3--|--------3--------3--|--------3--------3--|
--------------------|--------------------|--------------------|
-----------5--------|-----------5--------|-----------5--------|
--3-----------------|--3-----------------|--3-----------------|


  E  E  E  E  E  E     E  E  E  E  E  E     E  E  E  E  E  E   
--6--------6--------|--6--------5--------|--6--------7--------|
-----3--------3-----|-----7--------7-----|-----7--------7-----|
--------3--------3--|--------8--------8--|--------8--------8--|
--------------------|--------------------|--------------------|
-----------5--------|--6-----------------|--6-----------------|
--3-----------------|--------------------|--------------------|


  E  E  E  E  E  E     E  E  E  E  E  E     E  E  E  E  E  E   
--6--------2--------|--------------------|--------------------|
-----7--------4-----|--4--------0-----0--|--3-----------------|
--------8--------3--|-----3--------------|--2--------0--------|
-----------1--------|--------4-----4-----|--0--0--3-----3--0--|
--6-----------------|--1-----------------|--------------------|
--------------------|--------------------|--------------------|


  E  E  E  E  E  E     E  E  E  E  E  E     E  E  E  E  E  E   
--------------------|--------------------|--------------------|
--------------------|--3-----------------|--------------------|
-----------0--------|--4-----------------|--------------------|
-----0--3-----3--0--|--4-----0--2--0-----|--------0--2--0-----|
--0-----------------|--2--2-----------2--|-----2-----------2--|
--------------------|--------------------|--2-----------------|


  E  E  E  E  E  E     E  E  E  E  E  E       H.             
--------------------|---------------------||---------------||
--------------------|---------------------||---------------||
--------------------|--------------------*||---------------||
--------0--2--0-----|--------0--2--0-----*||---------------||
-----2-----------2--|-----2-----------2---||---------------||
--2-----------------|--2------------------||--2------------||




Duration Legend
---------------
W - whole
H - half
Q - quarter
E - 8th
S - 16th
T - 32nd
X - 64th
. - note dotted
|-n-|  - n-tuplets


Tablature Legend
----------------
L - tied note
x - dead note
g - grace note
(n) - ghost note
> - accentuded note
NH - natural harmonic
AH - artificial harmonic
TH - tapped harmonic
SH - semi harmonic
PH - pitch harmonic
h - hammer on
p - pull off
b - bend
br - bendRelease
pb - preBend
pbr - preBendRelease
brb - bendReleaseBend
\n/ - tremolo bar dip
\n - tremolo bar dive
-/n - tremolo bar Release up
/n\ - tremolo bar inverted dip
/n - tremolo bar return
-\n - tremolo bar Release down
S - shift slide
s - legato slide
/ -  slide into from below or out of upwards
\ -  slide into from above or out of downwards
~ - vibrato
W - wide vibrato
tr - trill
TP - tremolo picking
T - tapping
S - slap
P - pop
< - fade in
^ - brush up
v - brush down