Login or Register to remove this ad. | Advertise Here

Immoral Melody (Final Fantasy IX) Guitar Tab

Submitted: May 10, 2008 by archard (Last updated: May 10, 2008)

5
Average: 5 (2 votes)
Download | Listen
Game: Final Fantasy IX
Composer(s): Nobuo Uematsu
Style: 2 or more instruments, Transcription
Series: Final Fantasy

This song is also called The Dark Messenger

AutoScroll: Slow | Medium | Fast
Final Fantasy IX
Immoral Melody/The Dark Messenger
Composed by Nobuo Uematsu
Tabbed by Richard Schaefer (archard)
5/10/08


Guitar 1



     H        Q    Q       Q    E  E  H           H.           Q     
E||---------------------|--6----8--9-----------|--------------------|
B||--6--------8----9----|-------------8--------|--L-----------------|
G||---------------------|----------------------|--------------------|
D||---------------------|----------------------|--------------------|
A||---------------------|----------------------|--------------------|
E||---------------------|----------------------|--------------------|


  E  E  Q.     E  E  E     W                   W                 
--6--8------------------|-------------------|-------------------|
--------8------6--8--9--|-------------------|-------------------|
------------------------|--8----------------|--L----------------|
------------------------|-------------------|-------------------|
------------------------|-------------------|-------------------|
------------------------|-------------------|-------------------|


  W                   W                   H        H         
-------------------|-------------------|--------------------|
-------------------|-------------------|--------------------|
--L----------------|--L----------------|--L-----------------|
-------------------|-------------------|--------------------|
-------------------|-------------------|--------------------|
-------------------|-------------------|--------------------|


    H        H           H        H           H        H         
|---7--------6--------|--7--------8--------|--7-----------------|
|---------------------|--------------------|-----------8--------|
|*--------------------|--------------------|--------------------|
|*--------------------|--------------------|--------------------|
|---------------------|--------------------|--------------------|
|---------------------|--------------------|--------------------|


  H         H           W                   W                 
---------------------|-------------------|-------------------|
---------------------|-------------------|-------------------|
--9------------------|-------------------|-------------------|
-----------10--------|--8----------------|--L----------------|
---------------------|-------------------|-------------------|
---------------------|-------------------|-------------------|


  W                   W                   W                   W                 
-------------------|-------------------|-------------------|-------------------|
-------------------|-------------------|-------------------|-------------------|
--8----------------|--L----------------|--L----------------|--L----------------|
-------------------|-------------------|-------------------|-------------------|
-------------------|-------------------|-------------------|-------------------|
-------------------|-------------------|-------------------|-------------------|


  H        H           H        H           W                 
--------------------|--------------------|-------------------|
--------------------|--------------------|-------------------|
--7--------6--------|--7--------8--------|--7----------------|
--------------------|--------------------|-------------------|
--------------------|--------------------|-------------------|
--------------------|--------------------|-------------------|


  H        H           W                   W                 
-----------6--------|--9----------------|--L----------------|
--8-----------------|-------------------|-------------------|
--------------------|-------------------|-------------------|
--------------------|-------------------|-------------------|
--------------------|-------------------|-------------------|
--------------------|-------------------|-------------------|


  W                   W                   W                   W                 
--L----------------|--L----------------|--7----------------|--L----------------|
-------------------|-------------------|-------------------|-------------------|
-------------------|-------------------|-------------------|-------------------|
-------------------|-------------------|-------------------|-------------------|
-------------------|-------------------|-------------------|-------------------|
-------------------|-------------------|-------------------|-------------------|


  W                   W                   H        H         
--L----------------|--L----------------|--6--------5--------|
-------------------|-------------------|--------------------|
-------------------|-------------------|--------------------|
-------------------|-------------------|--------------------|
-------------------|-------------------|--------------------|
-------------------|-------------------|--------------------|


  H        H           W                    H         H         
--6--------7--------|--6----------------|--11--------14--------|
--------------------|-------------------|----------------------|
--------------------|-------------------|----------------------|
--------------------|-------------------|----------------------|
--------------------|-------------------|----------------------|
--------------------|-------------------|----------------------|


   W                    W                    W                 
--17----------------|---L----------------|---L----------------|
--------------------|--------------------|--------------------|
--------------------|--------------------|--------------------|
--------------------|--------------------|--------------------|
--------------------|--------------------|--------------------|
--------------------|--------------------|--------------------|


   W                    H         H            H         H         
---L----------------|--12--------11--------|--12--------14--------|
--------------------|----------------------|----------------------|
--------------------|----------------------|----------------------|
--------------------|----------------------|----------------------|
--------------------|----------------------|----------------------|
--------------------|----------------------|----------------------|


   W                    H         H            W                 
--12----------------|--16--------19--------|--22----------------|
--------------------|----------------------|--------------------|
--------------------|----------------------|--------------------|
--------------------|----------------------|--------------------|
--------------------|----------------------|--------------------|
--------------------|----------------------|--------------------|


   W                    W                    W                 
---L----------------|---L----------------|--21----------------|
--------------------|--------------------|--------------------|
--------------------|--------------------|--------------------|
--------------------|--------------------|--------------------|
--------------------|--------------------|--------------------|
--------------------|--------------------|--------------------|


   W                    W                    W                 
--19----------------|---L----------------|---L----------------|
--------------------|--------------------|--------------------|
--------------------|--------------------|--------------------|
--------------------|--------------------|--------------------|
--------------------|--------------------|--------------------|
--------------------|--------------------|--------------------|


   W                                                         
---L----------------|-------------------|-------------------|
--------------------|-------------------|-------------------|
--------------------|-------------------|-------------------|
--------------------|-------------------|-------------------|
--------------------|-------------------|-------------------|
--------------------|-------------------|-------------------|


-------------------|-------------------|-------------------|-------------------|
-------------------|-------------------|-------------------|-------------------|
-------------------|-------------------|-------------------|-------------------|
-------------------|-------------------|-------------------|-------------------|
-------------------|-------------------|-------------------|-------------------|
-------------------|-------------------|-------------------|-------------------|


-------------------|-------------------|-------------------|-------------------|
-------------------|-------------------|-------------------|-------------------|
-------------------|-------------------|-------------------|-------------------|
-------------------|-------------------|-------------------|-------------------|
-------------------|-------------------|-------------------|-------------------|
-------------------|-------------------|-------------------|-------------------|


-------------------|-------------------|-------------------|-------------------|
-------------------|-------------------|-------------------|-------------------|
-------------------|-------------------|-------------------|-------------------|
-------------------|-------------------|-------------------|-------------------|
-------------------|-------------------|-------------------|-------------------|
-------------------|-------------------|-------------------|-------------------|


-------------------|--------------------||
-------------------|--------------------||
-------------------|-------------------*||
-------------------|-------------------*||
-------------------|--------------------||
-------------------|--------------------||




Duration Legend
---------------
W - whole
H - half
Q - quarter
E - 8th
. - note dotted
L - tied note




Final Fantasy IX
Immoral Melody/The Dark Messenger
Composed by Nobuo Uematsu
Tabbed by Richard Schaefer (archard)
5/10/08


Guitar 2



     H        Q    Q       Q    E  E  H           H.           Q     
E||---------------------|--6----8--9-----------|--------------------|
B||--6--------8----9----|-------------8--------|--L-----------------|
G||---------------------|----------------------|--------------------|
D||---------------------|----------------------|--------------------|
A||---------------------|----------------------|--------------------|
E||---------------------|----------------------|--------------------|


  E  E  Q.     E  E  E     W                   W                 
--6--8------------------|-------------------|-------------------|
--------8------6--8--9--|-------------------|-------------------|
------------------------|--8----------------|--L----------------|
------------------------|-------------------|-------------------|
------------------------|-------------------|-------------------|
------------------------|-------------------|-------------------|


  W                   W                   H        H         
-------------------|-------------------|--------------------|
-------------------|-------------------|--------------------|
--L----------------|--L----------------|--L-----------------|
-------------------|-------------------|--------------------|
-------------------|-------------------|--------------------|
-------------------|-------------------|--------------------|


    W                   W                   W                 
|--------------------|-------------------|-------------------|
|--------------------|-------------------|-------------------|
|*-------------------|-------------------|-------------------|
|*--5----------------|--L----------------|--L----------------|
|--------------------|-------------------|-------------------|
|---3----------------|--L----------------|--L----------------|


  W                   W                   W                   W                 
-------------------|-------------------|-------------------|-------------------|
-------------------|-------------------|-------------------|-------------------|
-------------------|-------------------|-------------------|-------------------|
--L----------------|--4----------------|--L----------------|--5----------------|
-------------------|-------------------|-------------------|-------------------|
--L----------------|--2----------------|--L----------------|--3----------------|


  W                   W                   W                   W                 
-------------------|-------------------|-------------------|-------------------|
-------------------|-------------------|-------------------|-------------------|
-------------------|-------------------|-------------------|-------------------|
--L----------------|--L----------------|--L----------------|--L----------------|
-------------------|-------------------|-------------------|-------------------|
--L----------------|--L----------------|--L----------------|--L----------------|


  W                   W                   W                   W                 
-------------------|-------------------|-------------------|-------------------|
-------------------|-------------------|-------------------|-------------------|
-------------------|-------------------|-------------------|-------------------|
--L----------------|--L----------------|--L----------------|--6----------------|
-------------------|-------------------|-------------------|-------------------|
--L----------------|--L----------------|--L----------------|--4----------------|


  W                   W                   W                   W                 
-------------------|-------------------|-------------------|-------------------|
-------------------|-------------------|-------------------|-------------------|
-------------------|-------------------|-------------------|-------------------|
--L----------------|--L----------------|--L----------------|--L----------------|
-------------------|-------------------|-------------------|-------------------|
--L----------------|--L----------------|--L----------------|--L----------------|


  W                   W                   W                   W                 
-------------------|-------------------|-------------------|-------------------|
-------------------|-------------------|-------------------|-------------------|
-------------------|-------------------|-------------------|--3----------------|
--L----------------|--L----------------|--L----------------|-------------------|
-------------------|-------------------|-------------------|--1----------------|
--L----------------|--L----------------|--L----------------|-------------------|


  W                   W                   W                   W                 
-------------------|-------------------|-------------------|-------------------|
-------------------|-------------------|-------------------|-------------------|
--L----------------|--L----------------|--L----------------|--2----------------|
-------------------|-------------------|-------------------|-------------------|
--L----------------|--L----------------|--L----------------|--0----------------|
-------------------|-------------------|-------------------|-------------------|


  W                   W                   W                   W                 
-------------------|-------------------|-------------------|-------------------|
-------------------|-------------------|-------------------|-------------------|
--L----------------|--L----------------|--L----------------|-------------------|
-------------------|-------------------|-------------------|--6----------------|
--L----------------|--L----------------|--L----------------|-------------------|
-------------------|-------------------|-------------------|--4----------------|


  W                   W                   W                   W                 
-------------------|-------------------|-------------------|-------------------|
-------------------|-------------------|-------------------|-------------------|
-------------------|-------------------|-------------------|-------------------|
--L----------------|--L----------------|--L----------------|--4----------------|
-------------------|-------------------|-------------------|-------------------|
--L----------------|--L----------------|--L----------------|--2----------------|


  W                   W                   W                   W                 
-------------------|-------------------|-------------------|-------------------|
-------------------|-------------------|-------------------|-------------------|
-------------------|-------------------|-------------------|-------------------|
--L----------------|--L----------------|--L----------------|--6----------------|
-------------------|-------------------|-------------------|-------------------|
--L----------------|--L----------------|--L----------------|--4----------------|


  W                   W                   W                   W                 
-------------------|-------------------|-------------------|-------------------|
-------------------|-------------------|-------------------|-------------------|
-------------------|-------------------|-------------------|-------------------|
--L----------------|--L----------------|--L----------------|--L----------------|
-------------------|-------------------|-------------------|-------------------|
--L----------------|--L----------------|--L----------------|--L----------------|


  W                   W                   W                   W                 
-------------------|-------------------|-------------------|-------------------|
-------------------|-------------------|-------------------|-------------------|
-------------------|-------------------|-------------------|-------------------|
--L----------------|--L----------------|--L----------------|--4----------------|
-------------------|-------------------|-------------------|-------------------|
--L----------------|--L----------------|--L----------------|--2----------------|


  W                   W                   W                   W                 
-------------------|-------------------|-------------------|-------------------|
-------------------|-------------------|-------------------|-------------------|
-------------------|-------------------|-------------------|-------------------|
--L----------------|--L----------------|--L----------------|--6----------------|
-------------------|-------------------|-------------------|-------------------|
--L----------------|--L----------------|--L----------------|--4----------------|


  W                   W                   W                   W                 
-------------------|-------------------|-------------------|-------------------|
-------------------|-------------------|-------------------|-------------------|
-------------------|-------------------|-------------------|-------------------|
--L----------------|--L----------------|--L----------------|--4----------------|
-------------------|-------------------|-------------------|-------------------|
--L----------------|--L----------------|--L----------------|--2----------------|


  W                   W                   W                   
-------------------|-------------------|--------------------||
-------------------|-------------------|--------------------||
-------------------|-------------------|-------------------*||
--L----------------|--L----------------|--L----------------*||
-------------------|-------------------|--------------------||
--L----------------|--L----------------|--L-----------------||




Duration Legend
---------------
W - whole
H - half
Q - quarter
E - 8th
. - note dotted
L - tied note

1 comment on Immoral Melody

Really good Tab, as

5

Really good Tab, as expected. Though I don't know how to make Notes last that long. What are some Tricks to making an accoustic Guitar hold a Note longer than four or so Beats?