Login or Register to remove this ad. | Advertise Here

Frontier Village ~ Dali (Final Fantasy IX) Guitar Tab

Submitted: Mar 22, 2009 by TheDoomOfAllFires (Last updated: Jan 31, 2010)

5
Average: 5 (9 votes)
Download | Listen
Game: Final Fantasy IX
Composer(s): Nobuo Uematsu
Style: Arrangement, Fingerstyle
Series: Final Fantasy

AutoScroll: Slow | Medium | Fast
Final Fantasy IX - Frontier Village ~ Dali
Arranged by TheDoomOfAllFires; 03/22/2009

BPM=80

Standard Tuning


Hope you like it ! ^^


     ^                          ^                        
     E  E  E  E  E  E  E  E     E  E  E  E  E  E  E  E   
E||--0--------------0--------|--1--------------1--------|
B||-----3-----3--------3-----|-----3-----3--------3-----|
G||--0-----0--------------0--|--2-----2--------------2--|
D||--------------------2-----|--------------------3-----|
A||--3-----------3-----------|--3-----------3-----------|
E||--------------------------|--------------------------|


  ^                          ^                        
  E  E  E  E  E  E  E  E     E  E  E  E  E  E  E  E   
--2--------------2--------|--1--------------1--------|
-----3-----3--------3-----|-----1-----1--------1-----|
--2-----2--------------2--|--2-----2--------------2--|
--------------------4-----|--------------------3-----|
--3-----------3-----------|--3-----------3-----------|
--------------------------|--------------------------|


  E  E  E   E  E  E  E  E     E  E  E  E  E  E  E  E   
--0-----0h--1--3--------0--|--5-----3-----------0-----|
--------1------------------|--------3--3-----3-----3--|
-----0---------------0-----|-----0-----------0--------|
------------------2--------|--------------0-----------|
--3------------3-----------|--2--------2--------------|
---------------------------|--------------------------|


              ^                                                                
  E  E  E  E  Q    E  E     E  E  E  Q    E  E  E     E  E  E  E  E  E   Q     
--------------0----8-----|--7-----5-------5--7--5--|--3-----0--1--3-----10----|
--1-----1--3-------------|--------6----------------|--------------------------|
-----2--------0-------0--|-----5-----5-------------|--0--------------0---9----|
--------2----------------|--3----------------------|-----2--------------------|
--0----------------7-----|-------------------------|--3-----------3-----------|
--------------3----------|-------------------------|--------------------------|


                                                    ^                      
  E  E  H        Q       E  E  E  E  E  E   Q       E  E  Q    E  E  Q     
--3-------------------|--3-----0--1--3-----12----|--5-----5----------3----|
--------3-------------|--------------------------|--3--2--2---------------|
-----0--4-------------|-----3-----------0--------|--2-----2---------------|
----------------------|--------------------------|----------------2-------|
--2--------------2----|--1-----------1-----------|--0-----0----0----------|
----------------------|--------------------------|------------------------|


                           ^                         ^                        
  E  E  E  E  Q    Q       E   E  E  E  Q    Q       E  E  E  E  E  E  E  E   
--3-----0--1--3----8----|--8p--4--3--1------------|--0--------------0--1--0--|
--------1----------8----|---------4-----1----3----|-----3-----3--------------|
-----2------------------|--5------------1----0----|--0-----0-----------0-----|
--0-----------0---------|-------------------------|--------------------------|
------------------------|-------------------------|--3-----------3-----3-----|
------------------------|--4-----------------3----|--------------------------|


  ^     ^                                                               
  E  E  H.              H        Q    Q       E  E  E   E  E  E  E  E   
--0------------------|--8--------6----4----|--3-----0h--1--3-----0-----|
-----3--3------------|---------------------|--1-----1------------------|
--0-----0------------|----------------5----|-----0------------------0--|
--------0------------|---------------------|------------------2--------|
--------2------------|-----------6---------|--3------------3-----------|
--3------------------|--4------------------|---------------------------|


                                         ^                                     
  E  E  E  E  E  E  E  E     E  E  E  E  Q    E  E     E  E  E  Q    E  E  E   
--5-----3-----------0-----|--------------0----8-----|--7-----5-------5--7--5--|
--------0--3-----3-----3--|--1-----1--3-------------|--------6----------------|
-----0-----0-----0--------|--------2-----0-------0--|-----5-----5-------------|
--------------0-----------|-----2-------------------|--3----------------------|
--2-----------------------|--0----------------7-----|-------------------------|
-----------3--------------|--------------3----------|-------------------------|


                                                         ^              NH    
  E  E  E  E  E  E   Q       E  E  H        Q       Q    E  E  E  E     Q     
--3-----0--1--3-----10----|--3-------------------|--3----0--1--3-----<>12----|
--------------------------|--------3-------------|---------------------------|
--0--------------0--------|--4--0----------------|-------3--------0----------|
-----2--------------10----|--------0-------------|-------2-------------------|
--3-----------3-----------|--2--------------2----|--1----------1-------------|
--------------------------|----------------------|---------------------------|


  ^                                                  ^            ^          
  E  E  Q    E  E  E  E     E  E  E  E  Q    Q       E   E  E  E  Q    Q     
--5-----5----------3-----|--3-----0--1--3----8----|--8p--4--3--1------------|
--3--2--2----------3-----|--------1----------8----|---------4-----1----3----|
--2-----2-------------2--|-----2------------------|--5------------1----0----|
----------------2--------|--0-----------0---------|---------------1---------|
--0-----0----0-----------|------------------------|-------------------------|
-------------------------|------------------------|--4-----------------3----|


  ^                          ^     ^                                 
  E  E  E  E  E  E  E  E     E  E  H.              W                 
--0--------------0--1--0--|--0------------------|-------------------|
-----3-----3--------------|-----3--3------------|-------------------|
--0-----0-----------0-----|--0-----0------------|--0----------------|
--------------------------|--------0------------|--0----------------|
--3-----------3-----3-----|---------------------|-------------------|
--------------------------|--3-----3------------|--3----------------|


  E  E  E  E  E  E  Q       E  E  Q.     E  E  E     E  E  E  E  E  E  E  E   
--------------0-----7----|--3---------------------|--------------0-----7--5--|
--1-----1--3-------------|------------------------|--------1--3--------------|
--------2----------------|--------0------------0--|--------2-----------------|
-----2-----------2-------|--------2---------------|-----2-----------2--------|
--0-----------0----------|-----2---------2--------|--0-----------0-----------|
-------------------------|--0---------------0-----|--------------------------|


  ^                                                      
  H        E  E  E  E     E   E   E   E   E   E  E   E   
--8--------L--5--7--8--|--8-----------------------------|
-----------------------|---------10---------------------|
-----------------------|-----------------10------9------|
--7--------L-----------|-----10------10------10-----10--|
--8--------L-----------|--8-----------------------------|
-----------------------|--------------------------------|


  ^                                                  ^        ^         
  H        E  E  E  E     E  E  E  E  E  E  E  E     H        H         
-----------------7--5--|--3-----0--------0--2--3--|--1-----------------|
--------------7--------|-----0-----0-----0--------|-----------3--------|
--8--------8-----------|--------0--------------0--|--2--------0--------|
--9--------------------|--2-----------2-----------|--0--------0--------|
--9--------------------|--------------------------|--------------------|
--7--------------------|--------------------------|-----------3--------|


  E  E  E  E  E  E  E  E     E  E  E  E  E  E  E  E   
--------------------------|--------------------------|
--4-----------6--4-----4--|--3-----------------------|
--------5-----5-----7-----|--------4-----------4--5--|
-----------6--------------|-----------5--------------|
-----6--------------------|-----5-----------5--------|
--4-----------------------|--3-----------3-----------|


                             ^                        
  E  E  E  E  E  E  E  E     E  E  E  E  E  E  E  E   
--0--------------0--------|--1--------------1--------|
--1--3-----3--------3-----|-----3-----3--------3-----|
--------0--------------0--|--2-----2--------------2--|
--------------------2-----|--------------------3-----|
--3-----------3-----------|--3-----------3-----------|
--------------------------|--------------------------|


  ^                          ^                          ^                  
  E  E  E  E  E  E  E  E     E  E  E  E  E  E  E  E     W                  
--2--------------2--------|--1--------------1--------|--0----------------||
-----3-----3--------3-----|-----1-----1--------1-----|--1----------------||
--2-----2--------------2--|--2-----2--------------2--|--0----------------||
--------------------4-----|--------------------3-----|-------------------||
--3-----------3-----------|--3-----------3-----------|--3----------------||
--------------------------|--------------------------|-------------------||




Duration Legend
---------------
W - whole
H - half
Q - quarter
E - 8th
S - 16th
T - 32nd
X - 64th
. - note dotted
|-n-|  - n-tuplets


Tablature Legend
----------------
L - tied note
x - dead note
g - grace note
(n) - ghost note
> - accentuded note
NH - natural harmonic
AH - artificial harmonic
TH - tapped harmonic
SH - semi harmonic
PH - pitch harmonic
h - hammer on
p - pull off
b - bend
br - bendRelease
pb - preBend
pbr - preBendRelease
brb - bendReleaseBend
\n/ - tremolo bar dip
\n - tremolo bar dive
-/n - tremolo bar Release up
/n\ - tremolo bar inverted dip
/n - tremolo bar return
-\n - tremolo bar Release down
S - shift slide
s - legato slide
/ -  slide into from below or out of upwards
\ -  slide into from above or out of downwards
~ - vibrato
W - wide vibrato
tr - trill
TP - tremolo picking
T - tapping
S - slap
P - pop
< - fade in
^ - brush up
v - brush down

4 comments on Frontier Village ~ Dali

Wow, this is lovely ^^

5

Wow, this is lovely ^^

^_^

Thank you so much. i love this song and tab. thank you again.

hmmmm....

5

im not sure what to learn, this tab or the official arrangement

great

5

amazing tab
ur the man