Login or Register to remove this ad. | Advertise Here

Bran Bal ~The Village Without Souls~ (Final Fantasy IX) Guitar Tab

Submitted: Dec 26, 2008 by TheDoomOfAllFires (Last updated: Jun 08, 2010)

5
Average: 5 (6 votes)
Download | Listen
Game: Final Fantasy IX
Composer(s): Nobuo Uematsu
Style: Arrangement, Fingerstyle
Series: Final Fantasy

AutoScroll: Slow | Medium | Fast
Final Fantasy IX - Bran Bal ~The Village Without Souls~
Arranged by TheDoomOfAllFires, 12/25/2008


Standard Tuning
Bpm=100



      E  E  E  E  E  E     E  E  E  E  E  E     E  E  E  E  E  E   
E||---0-----1-----0-----|--3-----1-----0-----|--------------------|
B||------------1--------|-----------1--------|--4--------4--------|
G||*--------2-----2-----|--------2-----2-----|--------5-----5-----|
D||*-----2-----------2--|-----2-----------2--|-----5-----------5--|
A||---0-----------------|--0-----------------|--3-----------------|
E||---------------------|--------------------|--------------------|


  E  E  E  E  E  E     E  E  E  E  E  E     E  E  E  E  E  E   
--------------------|--------------------|--------------------|
-----------4--------|--4-----6-----4-----|--8-----6-----4-----|
--------5-----5-----|-----------5--------|-----------5--------|
-----5-----------5--|--------6-----6-----|--------6-----6-----|
--3-----------------|-----6-----------6--|-----6-----------6--|
--------------------|--4-----------------|--4-----------------|


  E  E  E  E  E  E     E  E  E  E  E  E     E  E  E  E  E  E   
--------------------|--------------------|--------------------|
--3-----------------|--------------------|--3-----4-----3-----|
-----------1--------|-----------1--------|-----------3--------|
--------3-----3-----|--------3-----3-----|--------5-----5-----|
-----3-----------3--|-----3-----------3--|-----5-----------5--|
--1-----------------|--1-----------------|--3-----------------|


  E  E  E  E  E  E     E  E  E  E  E  E     E  E  E  E  E  E   
--------------------|--------------------|--------------------|
--6-----4-----3-----|--1--------1--------|-----------1--------|
-----------3--------|--------1-----1-----|--------1-----1-----|
--------5-----5-----|-----1-----------1--|-----1-----------1--|
-----5-----------5--|--------------------|--------------------|
--3-----------------|--4-----------------|--4-----------------|


  E  E  E  E  E  E     E  E  E  E  E  E     E  E  E  E  E  E   
--------------------|--------------------|-----------0--------|
--1-----------------|--------------------|--1-----1-----1-----|
-----------1--------|--1-----------3-----|-----0-----------0--|
--------3-----3-----|--------3-----3-----|--------------------|
-----3-----------3--|-----3-----3-----3--|--3-----------------|
--1-----------------|--1-----------------|--------------------|


  E  E  E  E  E  E        E  E  E   E  E  E     E  E  E  E  E  E   
-----------0---------||---8--------10--8-----|--4-----------------|
--------1-----1------||----------------------|--------------------|
-----0-----------0--*||*---------------------|-----------0--1-----|
--------------------*||*--------7------------|--------3--------3--|
--3------------------||------7------------7--|-----3--------------|
---------------------||---5------------------|--1-----------------|


  E  E  E  E  E  E     E  E  E  E  E  E     E  E  E  E  E  E   
--3-----------------|--3-----------------|--6-----8-----6-----|
-----------4--6-----|--------------------|--------------------|
--------5-----------|-----------3--------|--------8-----------|
-----5-----5-----5--|--------5-----5-----|-----8-----8-----8--|
--3-----------3-----|-----5-----------5--|--6-----------------|
--------------------|--3-----------------|--------------------|


  E  E  E  E  E  E     E  E  E  E  E  E     E  E  E  E  E  E     
--3-----------1-----|--3-----------------|---------------------||
-----------4--------|-----------1--------|-----------0---------||
--------------------|--------0-----0-----|--------0-----0-----*||
--------3-----------|-----0-----------0--|-----0-----------0--*||
-----3-----------3--|--------------------|---------------------||
--1-----------------|--3-----------------|--3------------------||


   E  E  E  E  E  E     E  E  E  E  E  E     E  E  E  E  E  E   
---0-----1-----0-----|--3-----1-----0-----|--------------------|
------------1--------|-----------1--------|--4--------4--------|
*--------2-----2-----|--------2-----2-----|--------5-----5-----|
*-----2-----------2--|-----2-----------2--|-----5-----------5--|
---0-----------------|--0-----------------|--3-----------------|
---------------------|--------------------|--------------------|


  E  E  E  E  E  E     E  E  E  E  E  E     E  E  E  E  E  E   
--------------------|--------------------|--------------------|
-----------4--------|--4-----6-----4-----|--8-----6-----4-----|
--------5-----5-----|-----------5--------|-----------5--------|
-----5-----------5--|--------6-----6-----|--------6-----6-----|
--3-----------------|-----6-----------6--|-----6-----------6--|
--------------------|--4-----------------|--4-----------------|


  E  E  E  E  E  E     E  E  E  E  E  E     E  E  E  E  E  E   
--------------------|--------------------|--------------------|
--3-----------------|--------------------|--3-----4-----3-----|
-----------1--------|-----------1--------|-----------3--------|
--------3-----3-----|--------3-----3-----|--------5-----5-----|
-----3-----------3--|-----3-----------3--|-----5-----------5--|
--1-----------------|--1-----------------|--3-----------------|


  E  E  E  E  E  E     E  E  E  E  E  E     E  E  E  E  E  E   
--------------------|--------------------|--------------------|
--6-----4-----3-----|--1--------1--------|-----------1--------|
-----------3--------|--------1-----1-----|--------1-----1-----|
--------5-----5-----|-----1-----------1--|-----1-----------1--|
-----5-----------5--|--------------------|--------------------|
--3-----------------|--4-----------------|--4-----------------|


  E  E  E  E  E  E     E  E  E  E  E  E     E  E  E  E  E  E   
--------------------|--------------------|-----------0--------|
--1-----------------|--------------------|--1-----1-----1-----|
-----------1--------|--1-----------3-----|-----0-----------0--|
--------3-----3-----|--------3-----3-----|--------------------|
-----3-----------3--|-----3-----3-----3--|--3-----------------|
--1-----------------|--1-----------------|--------------------|


  E  E  E  E  E  E        E  E  E   E  E  E     E  E  E  E  E  E   
-----------0---------||---8--------10--8-----|--4-----------------|
--------1-----1------||----------------------|--------------------|
-----0-----------0--*||*---------------------|-----------0--1-----|
--------------------*||*--------7------------|--------3--------3--|
--3------------------||------7------------7--|-----3--------------|
---------------------||---5------------------|--1-----------------|


  E  E  E  E  E  E     E  E  E  E  E  E     E  E  E  E  E  E   
--3-----------------|--3-----------------|--6-----8-----6-----|
-----------4--6-----|--------------------|--------------------|
--------5-----------|-----------3--------|--------8-----------|
-----5-----5-----5--|--------5-----5-----|-----8-----8-----8--|
--3-----------3-----|-----5-----------5--|--6-----------------|
--------------------|--3-----------------|--------------------|


  E  E  E  E  E  E     E  E  E  E  E  E     E  E  E  E  E  E     
--3-----------1-----|--3-----------------|---------------------||
-----------4--------|-----------1--------|-----------0---------||
--------------------|--------0-----0-----|--------0-----0-----*||
--------3-----------|-----0-----------0--|-----0-----------0--*||
-----3-----------3--|--------------------|---------------------||
--1-----------------|--3-----------------|--3------------------||


  ^              
  H.             
---------------||
--4------------||
---------------||
--5------------||
--3------------||
---------------||




Duration Legend
---------------
W - whole
H - half
Q - quarter
E - 8th
S - 16th
T - 32nd
X - 64th
. - note dotted
|-n-|  - n-tuplets


Tablature Legend
----------------
L - tied note
x - dead note
g - grace note
(n) - ghost note
> - accentuded note
NH - natural harmonic
AH - artificial harmonic
TH - tapped harmonic
SH - semi harmonic
PH - pitch harmonic
h - hammer on
p - pull off
b - bend
br - bendRelease
pb - preBend
pbr - preBendRelease
brb - bendReleaseBend
\n/ - tremolo bar dip
\n - tremolo bar dive
-/n - tremolo bar Release up
/n\ - tremolo bar inverted dip
/n - tremolo bar return
-\n - tremolo bar Release down
S - shift slide
s - legato slide
/ -  slide into from below or out of upwards
\ -  slide into from above or out of downwards
~ - vibrato
W - wide vibrato
tr - trill
TP - tremolo picking
T - tapping
S - slap
P - pop
< - fade in
^ - brush up
v - brush down

2 comments on Bran Bal ~The Village Without Souls~

Awesome

Very good man, I hope you're going to do a video

I know this is an older song,

5

I know this is an older song, but I think it might be better done as drop D and move a few fingerings up to the next string.

I've been messing around with it, maybe I'll submit a new tab of it.