Login or Register to remove this ad. | Advertise Here

Battle Theme (Final Fantasy IX) Bass Tab

Submitted: Jan 30, 2009 by auriplane

5
Average: 5 (1 vote)
Download | Listen
Game: Final Fantasy IX
Composer(s): Nobuo Uematsu
Style: Transcription
Series: Final Fantasy

AutoScroll: Slow | Medium | Fast
                   Final Fantasy 9 - Battle BASS TAB
                          Song by Nobuo Uematsu

                  Tabbed by auriplane (crystal@panix.com)
                               On 1/30/2009

Take careful note of the one 3/4 measure in Part A.  If you don't know what
that means, it means hold that note for 7 beats instead of 8 total.

Five-string bass, standard tuning.

    Intro

G |----------------|----------------|
D |----------------|----------------|
A |----------------|----------------|
E |5-5-5-5-5-5-3-3-|5-5-5-5-5-5-3-3-|
B |----------------|----------------|

    Part A

G |----------------|----------------|----------------|----------------|
D |----------------|----------------|----------------|----------------|
A |----------------|----------------|----------------|----------------|
E |5-5-5-5-5-5-3-3-|5-5-5-5-5-5-3-3-|5-5-5-5-5-5-3-3-|5-5-5-5-5-5-3-3-|
B |----------------|----------------|----------------|----------------|
                    3/4          4/4 
G |----------------|------------|----------------|----------------|
D |----------------|------------|----------------|----------------|
A |----------------|------------|----------------|----------------|
E |1---------------|L-----------|3---------------|L---------------|
B |----------------|------------|----------------|----------------|

G |----------------|----------------|----------------|----------------|
D |----------------|----------------|----------------|----------------|
A |----------------|----------------|----------------|----------------|
E |5-5-5-5-5-5-3-3-|5-5-5-5-5-5-3-3-|5-5-5-5-5-5-3-3-|5-5-5-5-5-5-3-3-|
B |----------------|----------------|----------------|----------------|

    Part B    REPEAT 2X

G |----------------|----------------|----------------|----------------|
D |----------------|----------------|----------------|----------------|
A |----------------|----------------|----------------|----------------|
E |5-----5---0-6-4-|5-----5---0-3-4-|5-5-5-5-5-5-3-3-|5-5-5-5-5-5-3-3-|
B |----------------|----------------|----------------|----------------|

G |----------------|----------------|----------------|----------------|
D |----------------|----------------|----------------|----------------|
A |------------3---|----------5-2---|----------------|----------------|
E |1-----1---------|3-----3-------3-|5-5-5-5-5-5-3-3-|5-5-5-5-5-5-3-3-|
B |----------------|----------------|----------------|----------------|

    Part C

G |----------------|----------------|----------------|----------------|
D |----------------|----------------|----------------|----------------|
A |----------------|----------------|----------------|----------------|
E |1-----1-----0---|----------0-1---|3-----3-----1---|0-----0---0-0-0-|
B |----------------|3-----3---------|----------------|----------------|

G |----------------|----------------|----------------|----------------|
D |----------------|----------------|----------------|----------------|
A |----------------|----------------|----------------|----------------|
E |1-----1-----1---|2-----2---2-2---|3-----3-----3---|4-----4---4-4-4-|
B |----------------|----------------|----------------|----------------|

G |----------------|----------------|----------------|----------------|
D |----------------|----------------|----------------|----------------|
A |----------------|----------------|----------------|----------------|
E |5-----5---------|----------------|3-----3---------|----------------|
B |------------5---|3-----3---5-6---|------------3---|1-----1---1-1-1-|

G |----------------|----------------|
D |----------------|----------------|
A |----------------|----------------|
E |5-----5-----3---|2-----2---2-2---|
B |----------------|----------------|

G |----------------|----------------|----------------|----------------|
D |----------------|----------------|----------------|----------------|
A |----------------|------3---5-3---|----------------|----------------|
E |3---------2-5---|3-------------2-|3-----3---------|3-----3---3-3-3-|
B |------3---------|----------------|------------3---|----------------|

    Repeat back to Part A.