Login or Register to remove this ad. | Advertise Here

You're Not Alone (Final Fantasy IX) Guitar Tab

Submitted: Oct 01, 2007 by archard

4.625
Average: 4.6 (32 votes)
Download | Listen
Game: Final Fantasy IX
Composer(s): Nobuo Uematsu
Style: Transcription
Series: Final Fantasy

AutoScroll: Slow | Medium | Fast
You're Not Alone
Composed by Nobuo Uematsu
Tabbed by Richard Schaefer
richard@gametabs.net
7/11/06

e--------------------------------------0-0-0----------------------
B--1---------------1-1-1-0-------------------3-1---1-0---0-1-0---0
G------2---0-2-------------2---0-2---------------------2-------2--
D--------------2-------------------2------------------------------
A-----------------------------------------------------------------
E-----------------------------------------------------------------

e----------------------------------0---0-0-0----------------------
B--1---------------1-1-1-0-------------------3-1---1-0---1-0------
G------2---0-2-------------2---0-2---------------------2-----2-0-2
D--------------2--------------------------------------------------
A-----------------------------------------------------------------
E-----------------------------------------------------------------

e----------5-3-----------------0-------------0--8-7---------------
B--1-0-----------3-1-3---3-1-3-----------1-3----------------------
G------2-------------------------2---2----------------------------
D-----------------------------------------------------------------
A-----------------------------------------------------------------
E-----------------------------------------------------------------

e--5-3-5-7-8---5-3---------0--------------------------------------
B------------------3-3-1-3-------------0-1-0----------------------
G----------------------------2-----2---------0-0h2----------------
D-----------------------------------------------------------------
A-----------------------------------------------------------------
E-----------------------------------------------------------------

All these riffs repeat at some point during the song. You just have
to figure that out by listening to the song itself ;P

20 comments on You're Not Alone

wonderful song, thanks for

wonderful song, thanks for the tab. :)

Thanks a lot for the tab!

Thanks a lot for the tab! It's awesome!

Sounds great! Good job!

Sounds great! Good job!

I'm serious, someone needs

I'm serious, someone needs to tab the battle song.

Hiya nice but you have too

Hiya nice but you have too repeat the first allways untill yeah in a time :D

Congratulation! But,

Congratulation!
But, unfortunatelly, there isn't "Bittersweet Romance" and
"Dissipating Sorrow" :love: :p :p
I hope archard heard me ^^ :d

Thanks, this actually tought

Thanks, this actually tought me how to read tabs, lol

Yes,just as Richard said

Yes,just as Richard said (All these riffs repeat at some point during the song. You just have
to figure that out by listening to the song itself)

Im not saying that anything is wrong but,
The order is for this tab is...Starting from the top tab.
1,2,1,2,3,4,3,4 and continue.
I believe this is correct.

Great tab, just asking but

Great tab, just asking but shouldnt the 6th note on the 3rd line be a 0 on E? Thanks for the tab!!

Great tab. :) Love the song.

Great tab. :) Love the song.

very good :)

5

very good :)

thanks a lot!

thanks a lot! <3

great tab 5/5 from me one

5

great tab 5/5 from me

one thought tho listen to the midi
i think this part bellow

e----------5-3-----------------0----
B--1-0-----------3-1-3---3-1-3------
G------2-------------------------2--
D-----------------------------------
A-----------------------------------
E-----------------------------------

sounds more right if u change the first 3rd
fret to the 5th of the B string so its

e----------5-3-----------------0----
B--1-0-----------5-1-3---3-1-3------
G------2-------------------------2--
D-----------------------------------
A-----------------------------------
E-----------------------------------

i duno this jus sounds more right too me
hope this helps anyone =]

Re: You're Not Alone

cool! i only one thing i wud change though - rather than

e----------5-3-----------------0----
B--1-0-----------3-1-3---3-1-3------
G------2-------------------------2--
D-----------------------------------
A-----------------------------------
E-----------------------------------

i wud have

e----------5-3-----------------0---
B--1-0-----------5-1-3---3-1-3-----
G------2-------------------------2-
D----------------------------------
A----------------------------------
E----------------------------------

gives it a lil more variation

Amazing~

5

Wow, I totally forgot this song from the game- I don't know why, though. It's beautiful. Thank you so much for the tab!

nice tab

nice tab and nice song

good tab

2

but how is this in the top rated tabs above the likes of

tifa's theme - kabukibear
to zanarkand - kabukibear
rose of may - kabukibear
sight of spira - kabukibear

LOL

this is not a great tab
is plays one note at a time, so why does everyone rate it 5 stars?

t-o-m-o said but how is this

t-o-m-o said

but how is this in the top rated tabs above the likes of

tifa's theme - kabukibear
to zanarkand - kabukibear
rose of may - kabukibear
sight of spira - kabukibear

LOL

this is not a great tab
is plays one note at a time, so why does everyone rate it 5 stars?

Because its a beginner level tab with the correct notes. I think a lot of people here are learning to play guitar so they'll rate the first tab that lets them play a song 5/5. That's why all the tabs by this guy are 5 stars. They're all extremely simple melody tabs. I think these kinds of tabs aren't any where near 5 stars, but whatever.

Thats great!

Thats great!

Superb

5

Thanks alot!