Login or Register to remove this ad. | Advertise Here

Steiner's Theme (Final Fantasy IX) Guitar Tab

Submitted: Oct 01, 2007 by archard

4
Average: 4 (2 votes)
Download | Listen
Game: Final Fantasy IX
Composer(s): Nobuo Uematsu
Style: Transcription
Series: Final Fantasy

AutoScroll: Slow | Medium | Fast
Steiner's Theme
Final Fantasy IX
Composed by Nobuo Uematsu
Tabbed by Richard Schaefer (richard@gametabs.net)
9/5/06

e----------------------------------------------
B----------------------------------------------
G------------------------3-2-0----0-2-0--------
D-----0-1-3-5----------3--------3--------------
A--3-------------------------------------------
E----------------------------------------------

e-------------------------------------------------------------
B---------1-3-----------1-4-3-1-0-----3-----1--0-1-3-4-3-1-0-1
G--0--2-3---------3-1-2-----------3-4-------------------------
D-------------------------------------------------------------
A-------------------------------------------------------------
E-------------------------------------------------------------

e----------------------------------------
B-------------------------------1--------
G-------------------------0-1-3----------
D-----0-1-3-5----------3-----------------
A--3-------------------------------------
E----------------------------------------

e-----------1--3--1---------------------------
B--0--1-3-4-------------3---1--0-1-3-4-3-1-0-1
G---------------------------------------------
D---------------------------------------------
A---------------------------------------------
E---------------------------------------------

e---------1-3-------------3-4-6-8--------
B--1--3-4--------------6-----------------
G----------------------------------------
D----------------------------------------
A----------------------------------------
E----------------------------------------

e------8-10-11-13--15--13-----10--8-7-8-10-11-10-8-7-8
B--12-------------------------------------------------
G-----------------------------------------------------
D-----------------------------------------------------
A-----------------------------------------------------
E-----------------------------------------------------

e---------------------------------3-4-3------------------------------------------
B----------------------6--4-3-4-6-------6-4-3-4-3-1-0----------------------------
G-----------------------------------------------------2-----------2-----3---2-3-4
D--3--1-0-1-3---------------------------------------------5---4-5----------------
A--------------------------------------------------------------------------------
E-------------------------------------------------------------------------------- x2

e---------1-3-------------3-4-6-8--------
B--1--3-4--------------6-----------------
G----------------------------------------
D----------------------------------------
A----------------------------------------
E----------------------------------------

e------8-10-11-13--15--13-----10--8-7-8-10-11-10-8-7-8
B--12-------------------------------------------------
G-----------------------------------------------------
D-----------------------------------------------------
A-----------------------------------------------------
E-----------------------------------------------------

1 comment on Steiner's Theme

Very good tab indeed, as

5

Very good tab indeed, as good as perfect!