Login or Register to remove this ad. | Advertise Here

Jesters of the Moon (Final Fantasy IX) Guitar Tab

Submitted: Oct 01, 2007 by archard

5
Average: 5 (3 votes)
Download | Listen
Game: Final Fantasy IX
Composer(s): Nobuo Uematsu
Style: Transcription
Series: Final Fantasy

AutoScroll: Slow | Medium | Fast
Jesters of the Moon
Final Fantasy IX
Composedy by Nobuo Uematsu
Tabbed by Richard Schaefer (richard@gametabs.net)
7/27/06

e--------------------1-0-------------------------------------
B------0-1----------------3-1--0-----0-1-----------1-0-------
G--2-2-----2-------2-------------2-2-----2-------------2-2--1
D------------3---2-------------------------3---2-1-----------
A------------------------------------------------------------
E------------------------------------------------------------

e--------------------1-0-------------------------------------
B------0-1----------------3-1--0-----0-1---------------------
G--2-2-----2-------2-------------2-2-----2-------2-----------
D------------3---2-------------------------3---2-----0-1--2--
A--------------------------------------------------3--------0
E------------------------------------------------------------

e-----------------------------------------------------------3
B-----------------------------------------------------------3
G-----------------------------------------------------------1
D--3-----2-------0------------------3-----2-------0---0-1-2--
A------------2-3---3-2-0----------------------2-3---3--------
E------------------------4-----------------------------------

e------------------------1-0-----------------------0------------
B----1-------1-4-----1-4-----1-------1-------1-4-----4-3-2-1-0--
G--2---2---2---2---2-----------1---2---2---2---2---------------1
D--------2-----------------------2-------2----------------------
A---------------------------------------------------------------
E---------------------------------------------------------------

e------------------------1-0-----------------------0---0-1-0----------------
B----1-------1-4-----1-4-----1-------1-------1-4-----4-------3-1-0----------
G--2---2---2---2---2-----------1---2---2---2---2-------------------2-----0h2
D--------2-----------------------2-------2----------------------------2h4---
A---------------------------------------------------------------------------
E---------------------------------------------------------------------------

2 comments on Jesters of the Moon

dude sweeet tab.I love this

dude sweeet tab.I love this tune.I have music for it on the piano and if you want to make it soun good the first part is c&a c&a a&f b&g but i havent found out how to play the rest yet.

p.s. Igot the sheet music from final fantasy music.com

awwww mint! great tab love

awwww mint! great tab love it!