Login or Register to remove this ad. | Advertise Here

Hunter's Chance (Final Fantasy IX) Bass/Guitar Tab

Submitted: Dec 21, 2007 by CpxAzn (Last updated: Apr 16, 2010)

5
Average: 5 (3 votes)
Download | Listen
Game: Final Fantasy IX
Composer(s): Nobuo Uematsu
Style: 2 or more instruments, Alternate picking, Arrangement, Transcription
Series: Final Fantasy

Click here for a video example.

AutoScroll: Slow | Medium | Fast

The Black Mages Version

Not tabbed by CpxAzn. Only edited and submitted.

                                Hunter's Chance                                 

                                      http://www.youtube.com/watch?v=fVfiGKC64Po
                                                                Edited by CpxAzn
tarra



     E  S E  S E  E  E     E  S E  S E  E  E     E  S E  S E  E  E   
E||---------------------|---------------------|---------------------|
B||---------------------|---------------------|---------------------|
G||---------------------|---------------------|---------------------|
D||--5--5-5--5-5--5--5--|--5--5-5--5-5--5--5--|--5--5-5--5-5--5--5--|
A||--3--3-3--3-3--3--3--|--3--3-3--3-3--3--3--|--3--3-3--3-3--3--3--|
E||---------------------|---------------------|---------------------|


  E  S E  S E  E  E      E.  S S S S S S S  S S    E.   S S  S  S S S S  S S  
---------------------|--------------------------|----------------------------|
---------------------|--------------------------|-----------------------11---|
---------------------|-------7---8-7-------10---|--8---10---12-10---7--------|
--5--5-5--5-5--5--5--|--10-------------8--------|----------------------------|
--3--3-3--3-3--3--3--|--------------------------|----------------------------|
---------------------|--------------------------|----------------------------|


   E.  S S S S S S S  S S    E.   S  S  S  S S  S  S S  S  
--------------------------|-------------------------------|
--------------------------|--------------------------9-11-|
-------7---8-7-------10---|--8---10--L-12-10-9-10-12------|
--10-------------8--------|-------------------------------|
--------------------------|-------------------------------|
--------------------------|-------------------------------|


   E.    S S  S  S S  S S  S S    S  S  S  S  S  S  S S  S S  S S  
--------------------------13---|----------------13-----------16---|
--13~---14---16-14-------------|-------14-13-14----16---13--------|
---------------------15--------|----15----------------------------|
-------------------------------|----------------------------------|
-------------------------------|----------------------------------|
-------------------------------|----------------------------------|


  E   S  S  S  S  S  S  S  S  S  S    E   S  S S  S  S  S  S S  S S  
-----14-13-11----------------------|-----12-11-9--------------------|
--------------14-12-14-12-11-------|-------------12-11-12-11-9------|
-----------------------------13-11-|---------------------------11-9-|
-----------------------------------|--------------------------------|
-----------------------------------|--------------------------------|
-----------------------------------|--------------------------------|


  S S S  S S S  S S  S S  S S    S S S  S S S  S S  S E.   
------------------------------|---------------------------|
------------------------------|---------------------------|
------------------------------|---------------------------|
------------------------------|---------------------------|
--------11-----10---11---10---|--------11-----10---10-----|
--8-8-8--8-8-8--8----8----8---|--8-8-8--8-8-8--8----8-----|


  S S S  S S S  S S  S S  S S    S S S  S S S  S S  S S  S S  
------------------------------|------------------------------|
------------------------------|------------------------------|
------------------------------|------------------------------|
------------------------------|------------------------------|
--------11-----10---11---10---|--------11-----10---11---10---|
--8-8-8--8-8-8--8----8----8---|--8-8-8--8-8-8--8----8----8---|


   E.  S S S S S S S  S S    E.   S S  S  S S S S  S S  
--------------------------|----------------------------|
--------------------------|-----------------------11---|
-------7---8-7-------10---|--8---10---12-10---7--------|
--10-------------8--------|----------------------------|
--------------------------|----------------------------|
--------------------------|----------------------------|


   E.  S S S S S S S  S S    E.   S S  S  S S  S  S S  S  
--------------------------|------------------------------|
--------------------------|-------------------------9-11-|
-------7---8-7-------10---|--8---10-L-12-10-9-10-12------|
--10-------------8--------|------------------------------|
--------------------------|------------------------------|
--------------------------|------------------------------|


   E.    S S  S  S S  S S  S S    S  S  S  S  S  S  S  S  S  S  S  S  
--------------------------13---|----------------13----------13-14-18-|
--13~---14---16-14-------------|-------14-13-14----16-14-16----------|
---------------------15--------|----15-------------------------------|
-------------------------------|-------------------------------------|
-------------------------------|-------------------------------------|
-------------------------------|-------------------------------------|


  S E.   S  S S Q     S    S S S H.            S    H.            
------------------------|------------------------|---------------|
--------12-11-9------10-|--9-7-------------------|---------------|
------------------------|------7-6~------------L-|--L------------|
------------------------|------------------------|---------------|
------------------------|------------------------|---------------|
------------------------|------------------------|---------------|


  Q     H                                                                     
-----------------|----|----|----|----|----|----|----|----|----|----|----|----|
-----------------|----|----|----|----|----|----|----|----|----|----|----|----|
--L\-------------|----|----|----|----|----|----|----|----|----|----|----|----|
-----------------|----|----|----|----|----|----|----|----|----|----|----|----|
-----------------|----|----|----|----|----|----|----|----|----|----|----|----|
-----------------|----|----|----|----|----|----|----|----|----|----|----|----|


----|----|----|----|----|----|----|----|----|----|----|----|----|
----|----|----|----|----|----|----|----|----|----|----|----|----|
----|----|----|----|----|----|----|----|----|----|----|----|----|
----|----|----|----|----|----|----|----|----|----|----|----|----|
----|----|----|----|----|----|----|----|----|----|----|----|----|
----|----|----|----|----|----|----|----|----|----|----|----|----|


  S S S S S S S S S S S S    S S S S S S S S S E.     S S S S S S S S S S S S  
--------------------------|------------------------|--------------------------|
--------------------------|------------------------|--------------------------|
--------------------------|------------------------|--------------------------|
--------------------------|------------------------|--------------------------|
--------9-----8---9---8---|--------9-----8---8-----|--------9-----8---9---8---|
--6-6-6-6-6-6-6---6---6---|--6-6-6-6-6-6-6---6-----|--6-6-6-6-6-6-6---6---6---|


  S S S S S S S S S S S S                                              
--------------------------|------|------|---------|---------|---------|
--------------------------|------|------|---------|---------|---------|
--------------------------|------|------|---------|---------|---------|
--------------------------|------|------|---------|---------|---------|
--------9-----8---9---8---|------|------|---------|---------|---------|
--6-6-6-6-6-6-6---6---6---|------|------|---------|---------|---------|


  S S S S S S S S S S S S                         E.  S S S S S S S  S S  
--8-6-4-------------------|----|----|----|----|--------------------------|
--------8-6-4-------------|----|----|----|----|--------------------------|
--------------7-5-3---5-7-|----|----|----|----|-------7---8-7-------10---|
--------------------6-----|----|----|----|----|--10-------------8--------|
--------------------------|----|----|----|----|--------------------------|
--------------------------|----|----|----|----|--------------------------|


  E.   S S  S  S S S S  S S     E.  S S S S S S S  S S  
----------------------------|--------------------------|
-----------------------11---|--------------------------|
--8---10---12-10---7--------|-------7---8-7-------10---|
----------------------------|--10-------------8--------|
----------------------------|--------------------------|
----------------------------|--------------------------|


  E.   S  S  S  S S  S  S S  S     E.    S S  S  S S  S S  S S  
-------------------------------|--------------------------13---|
--------------------------9-11-|--13~---14---16-14-------------|
--8---10--L-12-10-9-10-12------|---------------------15--------|
-------------------------------|-------------------------------|
-------------------------------|-------------------------------|
-------------------------------|-------------------------------|


  S  S  S  S  S  S  S S  S S  S S    E   S  S  S  S  S  S  S  S  S  S  
----------------13-----------16---|-----14-13-11----------------------|
-------14-13-14----16---13--------|--------------14-12-14-12-11-------|
----15----------------------------|-----------------------------13-11-|
----------------------------------|-----------------------------------|
----------------------------------|-----------------------------------|
----------------------------------|-----------------------------------|


  E   S  S S  S  S  S  S S  S S    S S S  S S S  S S  S S  S S  
-----12-11-9--------------------|------------------------------|
-------------12-11-12-11-9------|------------------------------|
---------------------------11-9-|------------------------------|
--------------------------------|------------------------------|
--------------------------------|--------11-----10---11---10---|
--------------------------------|--8-8-8--8-8-8--8----8----8---|


  S S S  S S S  S S  S E.     S S S  S S S  S S  S S  S S  
---------------------------|------------------------------|
---------------------------|------------------------------|
---------------------------|------------------------------|
---------------------------|------------------------------|
--------11-----10---10-----|--------11-----10---11---10---|
--8-8-8--8-8-8--8----8-----|--8-8-8--8-8-8--8----8----8---|


  S S S  S S S  S S  S S  S S     E.  S S S S S S S  S S  
------------------------------|--------------------------|
------------------------------|--------------------------|
------------------------------|-------7---8-7-------10---|
------------------------------|--10-------------8--------|
--------11-----10---11---10---|--------------------------|
--8-8-8--8-8-8--8----8----8---|--------------------------|


  E.   S S  S  S S S S  S S     E.  S S S S S S S  S S  
----------------------------|--------------------------|
-----------------------11---|--------------------------|
--8---10---12-10---7--------|-------7---8-7-------10---|
----------------------------|--10-------------8--------|
----------------------------|--------------------------|
----------------------------|--------------------------|


  E.   S  S  S  S S  S  S S  S     E.    S S  S  S S  S S  S S  
-------------------------------|--------------------------13---|
--------------------------9-11-|--13~---14---16-14-------------|
--8---10--L-12-10-9-10-12------|---------------------15--------|
-------------------------------|-------------------------------|
-------------------------------|-------------------------------|
-------------------------------|-------------------------------|


  S  S  S  S  S  S  S  S  S  S  S  S    S E.   S  S S Q     S  
----------------13----------13-14-18-|------------------------|
----13-14-13-14----16-14-16----------|--------12-11-9------10-|
-------------------------------------|------------------------|
-------------------------------------|------------------------|
-------------------------------------|------------------------|
-------------------------------------|------------------------|


  S S S H.            S    H.              Q     H           H        E.  S   
------------------------|---------------|-----------------|------------------|
--9-7-------------------|---------------|-----------------|------------------|
------7-6~------------L-|--L------------|--L\-------------|---------------7b-|
------------------------|---------------|-----------------|------------------|
------------------------|---------------|-----------------|------------------|
------------------------|---------------|-----------------|------------------|


                      \1/              \1/                 \1/  
  H        Q        S E    E  E  E  E  S      H        E.  S    
-----------------|-------------------------|-------------------|
-----------------|--------12--9------------|-------------------|
--L--------L~----|----6----------9--4--0---|--L------------6---|
-----------------|-------------------------|-------------------|
-----------------|-------------------------|-------------------|
-----------------|-------------------------|-------------------|


  H        E.   S      E.  E   Q     E   S      E.  E   Q     E  S  
-------------------|--------------------10b-|---L------10b---------|
---------------10b-|---L------10b-----------|-------9---------9----|
--L--------L-------|-------9---------9------|--------------------0-|
-------------------|------------------------|----------------------|
-------------------|------------------------|----------------------|
-------------------|------------------------|----------------------|


                 W                                                        
  Q.     E.  S S S    H.              S  S  S  S  S  S  S  S  S  S  S  S  
-------------9---9-|--L------------|----------------12-14-15-16-12-14----|
---------------8---|---------------|----------13-14-------------------14-|
--L------L---------|---------------|----12-13----------------------------|
-------------------|---------------|-------------------------------------|
-------------------|---------------|-------------------------------------|
-------------------|---------------|-------------------------------------|


   S  S  S  S  S  S  S  S  S  S  S  S     S S S  S S S S S S S S S  
--12-11-------------------------------|----------------------------|
--------14----14----12-11----------12-|--10-8-5-10-8-5-3-8-5-3-2-0-|
-----------12----13-------13-12-11----|----------------------------|
--------------------------------------|----------------------------|
--------------------------------------|----------------------------|
--------------------------------------|----------------------------|


  Q    Q    S S S S     S S S S S S S S S S S S     S S S S S S S S S S S S   
--------------0------|----9----------------------|----9----------------------|
--2----L----L-----7b-|--L---9-8-7-------------7b-|--L---9-8-7-------------7b-|
---------------------|------------9-7-------7----|------------9-7-------7----|
---------------------|----------------9-8-9------|----------------9-8-9------|
---------------------|---------------------------|---------------------------|
---------------------|---------------------------|---------------------------|


  S S S S S S S S S S S S    S S  S  S  S  S  S  S  S  S  S  
----9---------------------|---------------------------------|
--L---9-8-7---------------|--7-8-10-12-13-15-16-17-16-19-16-|
------------9-7-------7-9-|---------------------------------|
----------------9-8-9-----|---------------------------------|
--------------------------|---------------------------------|
--------------------------|---------------------------------|


   Q      E   Q     E      E   E   E   S  S  S  S  S  S     H        E   E   
-----------------------|--------------------------------|-------------------|
--19b----16--19----16--|--14----------------------------|-------------------|
-----------------------|------11--13--13-11-------------|---------------11--|
-----------------------|--------------------13-12-11----|-------------------|
-----------------------|-----------------------------13-|--12--------L------|
-----------------------|--------------------------------|-------------------|


                                                                     \1/       
   Q    Q    E  E      S.  S.E.    S.E    E  T     S  E  E    S  E   E   S  S  
--------------------|---------------------------|-----------------------------|
--------------------|-----14------14-----14-----|----14------14-16------------|
----------------9b--|--L-----9b------9b------9b-|--L-----9b---------11--13-11-|
--13----L----L------|---------------------------|-----------------------------|
--------------------|---------------------------|-----------------------------|
--------------------|---------------------------|-----------------------------|


   \1/             \1/                                      
   H.              H.              S S S S S S S S S S S S  
----------------|---------------|--------------------------|
----------------|---------------|--------------------------|
--11------------|---------------|--------------------------|
----------------|---------------|--------------------------|
----------------|---------------|--------9-----8---9---8---|
----------------|--0------------|--6-6-6-6-6-6-6---6---6---|


  S S S S S S S S S E.     S S S S S S S S S S S S    S S S S S S S S S S S S  
------------------------|--------------------------|--------------------------|
------------------------|--------------------------|--------------------------|
------------------------|--------------------------|--------------------------|
------------------------|--------------------------|--------------------------|
--------9-----8---8-----|--------9-----8---9---8---|--------9-----8---9---8---|
--6-6-6-6-6-6-6---6-----|--6-6-6-6-6-6-6---6---6---|--6-6-6-6-6-6-6---6---6---|


                                              S S S S S S S S S S S S       
------|------|---------|---------|---------|--8-6-4-------------------|----|
------|------|---------|---------|---------|--------8-6-4-------------|----|
------|------|---------|---------|---------|--------------7-5-3---5-7-|----|
------|------|---------|---------|---------|--------------------6-----|----|
------|------|---------|---------|---------|--------------------------|----|
------|------|---------|---------|---------|--------------------------|----|


----|----|----|----|----|----|----|----|----|----|----|----|----|----|----|----|
----|----|----|----|----|----|----|----|----|----|----|----|----|----|----|----|
----|----|----|----|----|----|----|----|----|----|----|----|----|----|----|----|
----|----|----|----|----|----|----|----|----|----|----|----|----|----|----|----|
----|----|----|----|----|----|----|----|----|----|----|----|----|----|----|----|
----|----|----|----|----|----|----|----|----|----|----|----|----|----|----|----|


----|----|----|----|----|----|----|----|----|----|----|----|----|----|----|----|
----|----|----|----|----|----|----|----|----|----|----|----|----|----|----|----|
----|----|----|----|----|----|----|----|----|----|----|----|----|----|----|----|
----|----|----|----|----|----|----|----|----|----|----|----|----|----|----|----|
----|----|----|----|----|----|----|----|----|----|----|----|----|----|----|----|
----|----|----|----|----|----|----|----|----|----|----|----|----|----|----|----|


                            E.  S S S S S S S  S S  
----|----|----|----|----|--------------------------|
----|----|----|----|----|--------------------------|
----|----|----|----|----|-------7---8-7-------10---|
----|----|----|----|----|--10-------------8--------|
----|----|----|----|----|--------------------------|
----|----|----|----|----|--------------------------|


   E.   S S  S  S S  S S  S S                          
------------------------------|-----|-----|-----|-----|
-------------------------14---|-----|-----|-----|-----|
--11---13---15-13---10--------|-----|-----|-----|-----|
------------------------------|-----|-----|-----|-----|
------------------------------|-----|-----|-----|-----|
------------------------------|-----|-----|-----|-----|


   S  S S  S S S  S S S  S S  S    S S S S S S S S S S S S              
--11-10-8-----------------------|--8-6-4-------------------|-----|-----|
----------11-9-8----------------|--------8-6-4-------------|-----|-----|
-----------------10-8-7---------|--------------7-5-3---5-7-|-----|-----|
------------------------10-8-10-|--------------------6-----|-----|-----|
--------------------------------|--------------------------|-----|-----|
--------------------------------|--------------------------|-----|-----|


  E.  E  S S S S S S S     S S  S S  S S  S S  S S  S S     E.   H        S  
-----------4---8---6---|--11---15---13---16---20---18---|--20~--------------|
--4---6--8-------------|--------------------------------|-------------------|
-----------------------|--------------------------------|-------------------|
-----------------------|--------------------------------|-------------------|
-----------------------|--------------------------------|-------------------|
-----------------------|--------------------------------|-------------------|


----||
----||
----||
----||
----||
----||




Duration Legend
---------------
W - whole
H - half
Q - quarter
E - 8th
S - 16th
T - 32nd
X - 64th
. - note dotted
|-n-|  - n-tuplets


Tablature Legend
----------------
L - tied note
x - dead note
g - grace note
(n) - ghost note
> - accentuded note
NH - natural harmonic
AH - artificial harmonic
TH - tapped harmonic
SH - semi harmonic
PH - pitch harmonic
h - hammer on
p - pull off
b - bend
br - bendRelease
pb - preBend
pbr - preBendRelease
brb - bendReleaseBend
\n/ - tremolo bar dip
\n - tremolo bar dive
-/n - tremolo bar Release up
/n\ - tremolo bar inverted dip
/n - tremolo bar return
-\n - tremolo bar Release down
S - shift slide
s - legato slide
/ -  slide into from below or out of upwards
\ -  slide into from above or out of downwards
~ - vibrato
W - wide vibrato
tr - trill
TP - tremolo picking
T - tapping
S - slap
P - pop
< - fade in
^ - brush up
v - brush down

1 comment on Hunter's Chance

I love you. i have been

I love you. i have been looking for this tab for about a year now. Seeing this here brings joy to my heart.