Login or Register to remove this ad. | Advertise Here

Freya's Theme (Final Fantasy IX) Guitar Tab

Submitted: Oct 01, 2007 by archard

4.5
Average: 4.5 (4 votes)
Download | Listen
Game: Final Fantasy IX
Composer(s): Nobuo Uematsu
Style: Transcription
Series: Final Fantasy

AutoScroll: Slow | Medium | Fast
Freya's Theme
Final Fantasy 9
Composed by Nobuo Uematsu
Tabbed by Richard Schaefer (richard@gametabs.net)
1/2/07

e----------------------
B-----------10-8-------
G--10--9-7-------10-9-7
D----------------------
A----------------------
E----------------------

e-------------12-10---------
B--13--12-10--------13-12-10
G---------------------------
D---------------------------
A---------------------------
E---------------------------

e------------8-----------
B--10--8-------11-10-8---
G--------10------------10
D------------------------
A------------------------
E------------------------

e----------------------
B-----------10-8-------
G--10--9-7-------10-9-7
D----------------------
A----------------------
E---------------------- x3

e-------------12-10---------
B--13--12-10--------13-12-10
G---------------------------
D---------------------------
A---------------------------
E---------------------------

e------------8-----------
B--10--8-------11-10-8---
G--------10------------10
D------------------------
A------------------------
E------------------------

e----------------------
B-----------10-8-------
G--10--9-7-------10-9-7
D----------------------
A----------------------
E---------------------- x3

e------------8-----------
B--10--8-------11-10-8---
G--------10------------10
D------------------------
A------------------------
E------------------------

e------------8-----------
B--10--8-------11-10-10-8
G--------10--------------
D------------------------
A------------------------
E------------------------

e-------------12-10---------
B--13--12-10--------13-12-10
G---------------------------
D---------------------------
A---------------------------
E---------------------------

e----------------------------------------------------------------------
B--13--11-10-----10-------------------10-12------------------10-11-----
G-------------12----12-12----------12---------12----------12---------12
D----------------------------------------------------------------------
A----------------------------------------------------------------------
E----------------------------------------------------------------------

Repeat

2 comments on Freya's Theme

:s

:s

Just lol.

Just lol.