Login or Register to remove this ad. | Advertise Here

Esto Gaza (Final Fantasy IX) Guitar Tab

Submitted: Feb 29, 2008 by Stamen47 (Last updated: Oct 04, 2009)

4.25
Average: 4.3 (4 votes)
Download | Listen
Game: Final Fantasy IX
Composer(s): Nobuo Uematsu
Style: Arrangement, Fingerstyle
Series: Final Fantasy

AutoScroll: Slow | Medium | Fast
                                  Esto Gaza                                     
Music by Nobuo Uematsu
Tab by Stamen47

Track 1
           ^                ^                ^                ^         
      Q    H           Q    H           Q    H           Q    H         
E ||----------------|----------------|----------------|----------------|
B ||-------7--------|-------5--------|-------6--------|-------8--------|
F#||-------5--------|-------5--------|-------4--------|-------6--------|
D ||-------5--------|-------5--------|-------7--------|-------6--------|
A ||----------------|----------------|----------------|----------------|
E ||----------------|----------------|----------------|----------------|


       ^                ^                ^                ^         
  Q    H           Q    H           Q    H           Q    H         
----------------|----------------|-------4--------|-------3--------|
-------7--------|-------5--------|-------2--------|-------1--------|
-------5--------|-------5--------|-------3--------|-------3--------|
-------5--------|-------5--------|----------------|----------------|
----------------|----------------|----------------|----------------|
----------------|----------------|----------------|----------------|


  ^                                                                     
  H.                Q    Q    Q       Q     H           Q    Q    Q     
--L------------||---2---------0----|--7--------------|-------5---------|
--L------------||--------0---------|--------8--------|------------3----|
--L------------||*-------0---------|-------10--------|-------4---------|
---------------||*-------5---------|--------9--------|-------3---------|
---------------||------------------|--0--------------|-------5---------|
---------------||---0--------------|-----------------|--3--------------|


  Q    Q    Q       Q    Q    Q       Q     H           Q     Q     Q     
--3---------1----|--0--------------|--7--------------|--------0----------|
-------1---------|-------0----3----|--------8--------|-------12S----7----|
-------2---------|-------0---------|-------10--------|--0----------------|
-----------------|-------5---------|--------9--------|-------11----------|
-----------------|-----------------|--0--------------|-------------------|
--1--------------|--0--------------|-----------------|-------------------|


  Q    Q    Q       Q    H           Q    H           Q    Q    Q     
--5--------------|--2-------------|--0-------------|-----------------|
------------8----|-------0--------|-------0--------|-----------------|
-------6---------|-------0--------|-------1--------|-------4----6----|
-------5---------|-------5--------|-------2--------|-------3---------|
-------6---------|----------------|--0-------------|-------5---------|
--7--------------|--0-------------|----------------|--3--------------|


  Q    Q.     E     Q    H           Q    H           Q    H         
-----------------|----------------|-------3--------|-------6--------|
--3-----------1--|-------0--------|-------5--------|-------8--------|
-------2---------|-------0--------|-------5--------|-------9--------|
-------1---------|--5-------------|----------------|----------------|
-------3---------|----------------|--0-------------|----------------|
--1--------------|--0-------------|----------------|--8-------------|


  Q     H            Q.     E  E  E     E  S S E  E  E  E   
--------0--------|---L---------5--3--|--2------------0-----|
-------13--------|---L------7--------|---------0--3-----0--|
-------11--------|---L---------------|-------0----0-----0--|
--0--------------|-------------------|-----5---5-----5-----|
-----------------|-------------------|---------------------|
-----------------|-------------------|--0------------------|


  E  E  Q    E  S S    E  E  E  E  S S S S     E  E  Q    Q     
--7-----------------|--------5--------------|--3----------1----|
--------5-----------|--------------3--------|--------1---------|
--------5-----------|--------4--3--4--------|--------2---------|
-----5-------5------|-----------3----3------|------------------|
--0---------------0-|-----5------------5----|-----3------------|
----------------7---|--3-----------------3S-|--1----------1----|


  E  E  E  E  E  E     E  E  Q    E  S S    E   E   E    E  E  E   
--0-----------------|--7-----------------|----------0-------0-----|
--------0-----3-----|--------5-----------|---------12S------7-----|
--------0--------0--|--------5-----------|--0------------0--------|
-----5--------------|-----5-------5--4-5-|--------------11--------|
-----------5--------|--0-----------------|-----12--------------0--|
--0-----------------|--------------------|------------------------|


  E  E  Q    Q       E  E  E  E  E  E     E  E  E  E  S S S S  
--5---------------|--2-----------------|--0-------------------|
-------------8----|--------0-----0-----|--------0-----0-------|
--------6---------|--------0-----0-----|--------1-----1-------|
--------5---------|-----5-----5-----5--|-----2-----2----2-0---|
-----6--6----6----|--------------------|--0-----------------2-|
--7--7-------7----|--0-----------------|----------------------|


                                                       |-3-|              
  Q    S S S S S S S S    S S S S S S S S S S E     E  S S S E  E  E  E   
-----------------------|-------------------------|-----------0-----0-----|
-----------------------|--3-------------------1--|---------0----3-----0--|
-------4-------6-------|----------2-----------2--|-------0---------------|
-------5-3---3---3-----|------1-------1----------|--5--------------------|
-----------5-------5---|----3---3---3---3---3----|-----2-----------------|
--3------------------3-|--1---------------1------|--0--------------------|


                          |-3-|                                     
  E  E  Q.     S S     E  S S S E   E  E  E     E   E   Q     Q     
--------3-----------|-----------8------8-----|----------0----------|
--------5-----------|---------8----11-----8--|---------13----------|
--------5-----------|-------9----------------|---------11----------|
-----5--------------|-----8------------------|--0------------------|
--0------------0----|------------------------|-----12--------------|
-----------------3S-|--8---------------------|---------------12----|


  Q     H           Q     H           Q    H           Q    H         
-----------------|-----------------|-------1--------|-------3--------|
--------0--------|--------0--------|-------3--------|-------1--------|
-------13--------|-------13--------|-------4--------|-------2--------|
-------16--------|-------14--------|----------------|----------------|
-----------------|--0--------------|----------------|----------------|
--0--------------|-----------------|--3-------------|--1-------------|
                                                     ________________
                                                    |1st ending 
  Q     H           Q     H           Q    H           Q    H         
-----------------|-----------------|-------0--------|----------------|
--------0--------|--------0--------|-------2--------|-------4--------|
-------13--------|-------13--------|-------2--------|-------6--------|
-------16--------|-------14--------|----------------|-------5--------|
-----------------|--0--------------|----------------|----------------|
--0--------------|-----------------|--2-------------|--7-------------|
                   ________________
                  |2nd ending
                   rall...              |-3-|            
  H.                Q    H           E  S S S H          
----------------||----------------|-----------2--------||
--L-------------||-------4--------|---------0----------||
--L------------*||-------6--------|-----0--------------||
--L------------*||-------5--------|-------5------------||
----------------||----------------|--------------------||
--L-------------||--7-------------|--0-----------------||




Duration Legend
---------------
W - whole
H - half
Q - quarter
E - 8th
S - 16th
T - 32nd
X - 64th
. - note dotted
|-n-|  - n-tuplets


Tablature Legend
----------------
L - tied note
> - accentuded note
S - shift slide
^ - brush up
v - brush down

2 comments on Esto Gaza

Thank you

Thank you

amazing

amazing