Login or Register to remove this ad. | Advertise Here

Eiko's Theme (Final Fantasy IX) Guitar Tab

Submitted: Oct 01, 2007 by archard (Last updated: Sep 16, 2009)

4.88889
Average: 4.9 (9 votes)
Download | Listen
Game: Final Fantasy IX
Composer(s): Nobuo Uematsu
Style: Transcription
Series: Final Fantasy

AutoScroll: Slow | Medium | Fast
Eiko's Theme
Final Fantasy IX
Composed by Nobuo Uematsu
Tabbed by Richard Schaefer (richard@gametabs.net)
8/15/06

   Dsus4   D       Dsus2   D       Dsus4   D       Dsus2   D
e--3--3-2--2-2-2---0--0-2--2-2-2---3--3-2--2-2-2---0--0-2--2-2-2
B--3--3-3--3-3-3---3--3-3--3-3-3---3--3-3--3-3-3---3--3-3--3-3-3
G--2--2-2--2-2-2---2--2-2--2-2-2---2--2-2--2-2-2---2--2-2--2-2-2
D---------------------------------------------------------------
A---------------------------------------------------------------
E---------------------------------------------------------------

e------------------------------------------------------------
B--------0-----0--------0-----0--------1-----1---------------
G------0---0-2--------0---0-2--------0-----0----------4-----4
D----0--------------0--------------2-----2--------0-4---0-4--
A--2--------------2--------------3--------------2------------
E------------------------------------------------------------

e--------------------------------------------------------------
B--------1-----1--------------------------------------3--------
G------0-----0----------4-----4--------2-----2------0---------5
D----2-----2--------0-4---0-4--------2-----2------0-------0-4--
A--3--------------2--------------0-3-----3------0-------0------
E--------------------------------------------------------------

e--7---10---3---------8---12---5---------------
B----------------------------------------------
G----------------------------------------------
D----------------------------------------------
A----------------------------------------------
E----------------------------------------------

e----------------------------------------------------------------------
B--------------0------------------1------------0-------0---------------
G------0---------0--------0---------0--------0---0---0----------0-----0
D----0---0---0-----0----2---2---2-----2----0-------0----------0-----0--
A--2-------2----------3-------3----------2------------------2-----2----
E---------------------------------------------------------3------------

7 comments on Eiko's Theme

no comments on such a great

no comments on such a great song? love this tab, very fun to play

good tab

5

good tab

nice

good tab^^..........

loved it! great memories :)

4

loved it! great memories :)

wooo I love this song thanks

5

wooo I love this song thanks archard :3

Great for noobies like me!

I know people complain when transcriptions get 5 stars but thats what this is for. New guitar players looking for something to start with. so pshaw to the haters.

Awesome track...

One of my favourites off FFIX. Sounds very much like 'Descendant of Shinobi', but I doubt that's a coincidence, judging by the similarities between the two characters' personalities.

very good

very good tab for beginners like me, thanks for it very much!