Login or Register to remove this ad. | Advertise Here

Dissipating Sorrow (Final Fantasy IX) Guitar Tab

Submitted: Jan 27, 2008 by archard (Last updated: Sep 26, 2009)

5
Average: 5 (10 votes)
Download | Listen
Game: Final Fantasy IX
Composer(s): Nobuo Uematsu
Style: Arrangement, Fingerstyle
Series: Final Fantasy

AutoScroll: Slow | Medium | Fast
Dissipating Sorrow
Final Fantasy 9
Composed by Nobuo Uematsu
Arranged by Richard Schaefer (richard@gametabs.net)
1/26/08



     ^                 ^                  ^                   ^               
     Q.     E  Q       Q.     E  Q        Q.      E   Q       Q.     E  Q     
E||--3------2--0----|--2------3--5----|----------10--------|--5--------------|
B||--0--------------|--3--------------|--12----------12----|--5------8--5----|
G||--0--------------|--4--------------|--12----------------|--6--------------|
D||--2--------------|--4--------------|--12----------------|--7--------------|
A||--2--------------|--2--------------|--10----------------|--7--------------|
E||--0--------------|-----------------|--------------------|--5--------------|


  ^                 ^                ^                 ^               
  Q.     E  Q       H        Q       Q.     E  Q       Q.     E  Q     
--3------2--0----|--2--------7----|--3------2--0----|-----------------|
--5--------------|--3-------------|--0--------------|--3---------3----|
--5--------------|--4-------------|--0--------------|--4------4-------|
--5--------------|--4-------------|--2--------------|--4--------------|
--3--------------|--2-------------|--2--------------|--2--------------|
-----------------|----------------|--0--------------|-----------------|


  ^                 ^                  ^                   ^               
  Q.     E  Q       Q.     E  Q        Q.      E   Q       Q.     E  Q     
--3------2--0----|--2------3--5----|----------10--------|--5--------------|
--0--------------|--3--------------|--12----------12----|--5------8--5----|
--0--------------|--4--------------|--12----------------|--6--------------|
--2--------------|--4--------------|--12----------------|--7--------------|
--2--------------|--2--------------|--10----------------|--7--------------|
--0--------------|-----------------|--------------------|--5--------------|


  ^                 ^                 ^               ^             
  Q.     E  Q       Q    Q    Q       H.              H.            
--3------2--0----|--2----0---------|--0------------|--0------------|
--5--------------|--3---------3----|--0------------|--0------------|
--5--------------|--4--------------|--2------------|--0------------|
--5--------------|--4--------------|--2------------|--2------------|
--3--------------|--2--------------|--2------------|--2------------|
-----------------|-----------------|--0------------|--0------------|


  E  E  E  E  E  E     Q.     E  Q       E  E  E  E  E  E     H.            
--------0--3--2--0--|-----------------|--------3--7--5--3--|--5------------|
-----0--------------|--3--------------|-----0--------------|--2------------|
--------------------|-----------------|--------------------|--2------------|
--------------------|-----------------|--------------------|---------------|
-----------------0--|--2---------0----|-----------------2--|--0------------|
--0-----------------|---------3-------|--3-----------------|---------------|


  E  E  E  E  E  E     Q    Q    E  E     E  E  E  E  E  E     Q    E  E  Q     
--------0--3--2--0--|------------------|--------0--5--3--0--|--2-------0-------|
-----1--------------|--3----0----0-----|-----1--------------|-------------3----|
--------------------|------------------|--------------------|------------------|
--------------------|------------------|--------------------|------------------|
--3--------------3--|--2---------------|--0--------------4--|--2----0----------|
--------------------|---------------3--|--------------------|-------------3----|


  ^                 ^                  ^                   ^               
  Q.     E  Q       Q.     E  Q        Q.      E   Q       Q.     E  Q     
--3------2--0----|--2------3--5----|----------10--------|--5--------------|
--0--------------|--3--------------|--12----------12----|--5------8--5----|
--0--------------|--4--------------|--12----------------|--6--------------|
--2--------------|--4--------------|--12----------------|--7--------------|
--2--------------|--2--------------|--10----------------|--7--------------|
--0--------------|-----------------|--------------------|--5--------------|


  ^                 ^                 ^               ^                
  Q.     E  Q       Q    Q    Q       H.              Q.     E  E  E   
--3------2--0----|--2----0---------|--0------------|--0---------------|
--5--------------|--3---------3----|--0------------|--0---------------|
--5--------------|--4--------------|--2------------|--0---------0--2--|
--5--------------|--4--------------|--2------------|--2---------------|
--3--------------|--2--------------|--2------------|--2---------------|
-----------------|-----------------|--0------------|--0---------------|


  Q    E  E  E  E     Q    E  E  E  E     Q    E  E  E  E     Q    E  E  E  E   
-------------------|-------------------|-------------------|-------------------|
--0-------3--0-----|--0----------------|-------------------|-------------0-----|
-------------------|----------2--0-----|----------------0--|--2-------2-----2--|
-------------------|-------------------|--4-------2--4-----|-------------------|
----------------0--|--3----3--------2--|----------------0--|--3----3--------2--|
--3----3-----------|-------------------|--3----3-----------|-------------------|


  Q    Q    E  E     Q    E  E  E  E     Q    Q    Q       H        E  E   
------------------|-------------------|-----------------|-----------------|
------------------|-------------------|-----------------|--0--------------|
--0---------0-----|-------------------|-------0----2----|--4--------0--2--|
-------2----------|--4-------4--2--0--|--4--------------|--4--------------|
---------------0--|--2----2--------0--|------------0----|--2--------------|
--0----0----------|-------------------|--3--------------|-----------------|


  Q    E  E  E  E     Q    E  E  E  E     Q    E  E  E  E     Q    E  E  E  E   
-------------------|-------------------|-------------------|-------------------|
--0-------3--0-----|--0----------------|-------------------|-------------0-----|
-------------------|----------2--0-----|----------------0--|--2-------2-----2--|
-------------------|-------------------|--4-------2--4-----|-------------------|
----------------0--|--3----3--------2--|----------------0--|--3----3--------2--|
--3----3-----------|-------------------|--3----3-----------|-------------------|


                                       ^               ^              
  Q    Q    Q       Q.     E  E  E     H.              H        Q     
-------0----3----|--7---------------|--0------------|--2-------------|
--0--------------|---------7--------|--1------------|--3--------3----|
--0---------0----|--7---------9--7--|--2------------|--4-------------|
-------2---------|------------------|--2------------|--4-------------|
-----------------|------------------|--0------------|--2-------------|
-----------------|--7---------------|---------------|----------------|


  ^                                                                      
  H.              H        E  E      Q.      E   Q       Q.     E  Q     
--0------------|-----------3--5--|----------10--------|--7------5--3----|
--0------------|--L--------------|--12----------12----|-----------------|
--0------------|--L--------------|--------------------|-----------------|
--2------------|--L--------------|--------------------|-----------------|
--3------------|--L--------------|--10----------------|--3---------2----|
---------------|-----------------|--------------------|-----------------|


  Q.     E  E  E     Q.     E  E  E     Q    Q    Q       Q.     E  E  E   
--2------0--2--3--|--5------5--7--5--|--3----0----3----|--2------2--0-----|
------------------|------------------|-----------------|---------------3--|
------------------|------------------|-----------------|------------------|
------------------|--0---------------|------------2----|------------------|
--0------------0--|---------------3--|-------2---------|--2---------------|
------------------|------------------|--0--------------|------------------|


  ^                                ^                              
  H.              H        Q       H.              H.             
--0------------|--L-------------|--0------------|--L------------||
--1------------|-----------3----|--0------------|--L------------||
--2------------|--4-------------|--0------------|--L------------||
--2------------|--4-------------|--2------------|--L------------||
--0------------|--2-------------|--3------------|--L------------||
---------------|----------------|---------------|---------------||




Duration Legend
---------------
W - whole
H - half
Q - quarter
E - 8th
S - 16th
T - 32nd
X - 64th
. - note dotted
|-n-|  - n-tuplets


Tablature Legend
----------------
L - tied note
v - brush down

5 comments on Dissipating Sorrow

Fack. I just noticed a few

Fack. I just noticed a few minor mistakes. But when I saved the file to fix them Guitar Pro gave me that crazy French error. Oh well I'll fix it later.

Congratulation for this

5

Congratulation for this exellent tab!

I was searching for this

I was searching for this song.. Thanks..
But i know .. i never'll find it...
But.. If Archard upload it...
I`d Have hope

thats amazing. i love this

5

thats amazing. i love this song. =]

where's lonlonjp version ?

where's lonlonjp version ?