Login or Register to remove this ad. | Advertise Here

Condie Petie (Final Fantasy IX) Guitar Tab

Submitted: Oct 01, 2007 by archard

4.8
Average: 4.8 (5 votes)
Download | Listen
Game: Final Fantasy IX
Composer(s): Nobuo Uematsu
Style: Transcription
Series: Final Fantasy

AutoScroll: Slow | Medium | Fast
Conde Petie
Final Fantasy IX
Composed by Nobuo Uematsu
Tabbed by Richard Schaefer (richard@gametabs.net)
8/18/06

e--------------------------------------------------
B----3-3-3--------1-1-1-------3-3-3-1-3-4----------
G--0--------3-0-------------0-------------3--------
D---------------1----------------------------------
A--------------------------------------------------
E--------------------------------------------------

e--------------------------------------------------
B----3-3-3--------1-1-1---------3-1---------1-4-3-1
G--0--------3-0-------------0-3-----3-----1--------
D---------------1----------------------------------
A--------------------------------------------------
E--------------------------------------------------

e--------------------------------------------------
B----3-3-3--------1-1-1-------3-3-3-1-3-4----------
G--0--------3-0-------------0-------------3--------
D---------------1----------------------------------
A--------------------------------------------------
E--------------------------------------------------

e-----------------------------------1-----1---1-3-4
B----3-3-3--------1-1-1-----3-1-3-4---------4------
G--0--------3-0------------------------------------
D---------------1----------------------------------
A--------------------------------------------------
E--------------------------------------------------

e--11-----10---8---7-----5---7----10-----8---6---5
B-------------------------------------------------
G-------------------------------------------------
D-------------------------------------------------
A-------------------------------------------------
E-------------------------------------------------

e--4-----6---8---13---10---15---13---11-----10---8---6
B-----------------------------------------------------
G-----------------------------------------------------
D-----------------------------------------------------
A-----------------------------------------------------
E-----------------------------------------------------

e--4-----6---8---3---------------4-----6---8---10
B------------------------------------------------
G------------------------------------------------
D------------------------------------------------
A------------------------------------------------
E------------------------------------------------