Login or Register to remove this ad. | Advertise Here

Battle Theme (Final Fantasy IX) Guitar Tab

Submitted: Oct 01, 2007 by PolakDave

3.555555
Average: 3.6 (9 votes)
Download | Listen
Game: Final Fantasy IX
Composer(s): Nobuo Uematsu
Style: Transcription
Series: Final Fantasy

AutoScroll: Slow | Medium | Fast
Guitar
     H        S S S S S S S S   E E E E E E E E     E E E E E E E E
E||---------------------1-4-7-|-------------------|-------------------|
B||-----------------0-3-------|-------------------|-------------------|
G||---------------1-----------|-------------------|-------------------|
D||-----------0-3-------------|-------------------|-------------------|
A||---------------------------|-5-5-5-5-5-5-3-3---|-5-5-5-5-5-5-3-3---|
E||---------------------------|-------------------|-------------------|

    Q    Q    E  E  E  E     Q    E  E  E  E  Q       Q    Q    E  E  E  E
|-------------------------|-------0--------1--0----|------------------------|
|--------0----1--0-----3--|--1-------3-------------|-------0----1--0-----3--|
|*--2---------------------|------------------------|--2---------------------|
|*------------------------|------------------------|------------------------|
|-------------------------|------------------------|------------------------|
|-------------------------|------------------------|------------------------|

  Q    E  E  E  E  Q       Q.     E  Q    Q       Q    E  E  E  E  Q
-------0--------1--0----|----------------------|-------5--3--1--0-------|
--1-------3-------------|----------------------|-------------------3----|
------------------------|--2-------------------|------------------------|
------------------------|---------2--L----3----|--2---------------------|
------------------------|----------------------|------------------------|
------------------------|----------------------|------------------------|

  E  E  Q    Q       E  Q.     Q    Q       E  E  Q    E  E  Q
-----0--L----1----|--L--3------5----7----|------------------------|
--L---------------|----------------------|--------0----1-----3----|
------------------|----------------------|-----2------------------|
------------------|----------------------|------------------------|
------------------|----------------------|------------------------|
------------------|----------------------|------------------------|

  Q    E  E  E  E  Q       Q.     E  Q    Q       Q.     E  E  E  E  E
-------0--------1--0----|-----------------0----|--3------2--L--------0--|
--1-------3-------------|--1------3--L---------|---------------3--3-----|
------------------------|----------------------|------------------------|
------------------------|----------------------|------------------------|
------------------------|----------------------|------------------------|
------------------------|----------------------|------------------------|

  Q.     E  H           W                   Q.     E  Q    Q
--7------5--L--------|--L----------------|-----------------0----|
---------------------|-------------------|--1------3--L---------|
---------------------|-------------------|----------------------|
---------------------|-------------------|----------------------|
---------------------|-------------------|----------------------|
---------------------|-------------------|----------------------|

  W                   W                   Q.     E  Q    Q
-------------------|-------------------|-----------------0----|
-------------------|-------------------|--1------3--L---------|
--2----------------|--L----------------|----------------------|
-------------------|-------------------|----------------------|
-------------------|-------------------|----------------------|
-------------------|-------------------|----------------------|

  Q.     E  E  E  E  E     Q.     E  H           W
--3------2--2--------0--|--7------5--5--------|--L----------------|
---------------3--4-----|---------------------|-------------------|
------------------------|---------------------|-------------------|
------------------------|---------------------|-------------------|
------------------------|---------------------|-------------------|
------------------------|---------------------|-------------------|

  Q.     E  Q    Q       H.           Q       W
-----------------0----|--------------------|-------------------|
--1------3--L---------|--------------------|-------------------|
----------------------|--2------------0----|--2----------------|
----------------------|--------------------|-------------------|
----------------------|--------------------|-------------------|
----------------------|--------------------|-------------------|

  W                   E  E  E  E  E  E  Q       W
-------------------|--1--0--1-----------1----|--L----------------|
-------------------|-----------1-----1-------|-------------------|
--L----------------|--------------2----------|-------------------|
-------------------|-------------------------|-------------------|
-------------------|-------------------------|-------------------|
-------------------|-------------------------|-------------------|

  E  E  E  E  E  E  Q       W                   Q.     E  Q    Q
--3--2--3-----------3----|--L----------------|-----------------0----|
-----------3--0--3-------|-------------------|--1------1--L---------|
-------------------------|-------------------|----------------------|
-------------------------|-------------------|----------------------|
-------------------------|-------------------|----------------------|
-------------------------|-------------------|----------------------|

  Q.     E  Q    Q       H        E  E  E  E     W
----------------------|-----------------------|-------------------|
--3------3--L----1----|--------------------1--|--3----------------|
----------------------|--4--------4--2--4-----|--4----------------|
----------------------|-----------------------|-------------------|
----------------------|-----------------------|-------------------|
----------------------|-----------------------|-------------------|

  Q.     E  Q    Q       Q.     E  Q    Q       E  E  E  E  E  E  E  E
----------------------|----------------------|--------------------1--0--|
-----------------1----|----------------------|--3--2--3-----------------|
--2------4--L---------|---------0--L----2----|-----------4--0--4--------|
----------------------|--3-------------------|--------------------------|
----------------------|----------------------|--------------------------|
----------------------|----------------------|--------------------------|

  W                   Q.     E  E  E  Q       Q.     E  E  E  Q
--L----------------|--0------0--L-----0----|--2------2--L--0--2----|
-------------------|---------------4-------|-----------------------|
-------------------|-----------------------|-----------------------|
-------------------|-----------------------|-----------------------|
-------------------|-----------------------|-----------------------|
-------------------|-----------------------|-----------------------|

  W                   W                   W
--3----------------|--3----------------|--3----------------|
--3----------------|--3----------------|--3----------------|
--5----------------|--5----------------|--4----------------|
-------------------|-------------------|-------------------|
-------------------|-------------------|-------------------|
-------------------|-------------------|-------------------|

  W
--3-----------------||-------------------||
--3-----------------||-------------------||
--4----------------*||-------------------||
-------------------*||-------------------||
--------------------||-------------------||
--------------------||-------------------||

Duration Legend
---------------
W - whole
H - half
Q - quarter
E - 8th
S - 16th
T - 32nd
X - 64th
. - note dotted
|-n-|  - n-tuplets

7 comments on Battle Theme

What does L and * mean?

What does L and * mean?

I think L means tiead note

I think L means tiead note and * means repeat

Good tab, PolakDave. I often

4

Good tab, PolakDave. I often hum this to myself on the battlefield. Like when I was fighting Liquid on top of Metal Gear. And in the Jeep.

i think

5

this is better than kabukibears version

sorry to upset anyone, musicians perogative

Oh great

If you can't play the tab: don't say it's good or bad, as well as saying it's better/worse than another tab.

lol, anyway. Great job with this tab PolakDave. It's nice, simple, accurate, and easy to play. Pure awesomeness. 5 stars

Finally

Finally, I found this tab and it doesn't involve fingerpicking. XD
(I couldn't fingerpick if my life depended on it.)

Finally

Finally, I found this tab and it doesn't involve fingerpicking. XD
(I couldn't fingerpick if my life depended on it.)