Login or Register to remove this ad. | Advertise Here

Amarant's Theme (Final Fantasy IX) Guitar Tab

Submitted: Oct 01, 2007 by archard

5
Average: 5 (2 votes)
Download | Listen
Game: Final Fantasy IX
Composer(s): Nobuo Uematsu
Style: Transcription
Series: Final Fantasy

AutoScroll: Slow | Medium | Fast
Amarant's Theme
Final Fantasy 9
Composed by Nobuo Uematsu
Tabbed by Richard Schaefer (richard@gametabs.net)
1/4/07

e-----------------------------
B--1-----3-----0-----1---3-5--
G--2-----3-----0-----2---4-5--
D-----------------------------
A-----------------------------
E-----------------------------

e--------3-2------
B--5-3-5-----3-5--
G--------------5--
D-----------------
A-----------------
E-----------------

e-----------------------------
B--1-----3-----0--------------
G--2-----3-----0-----0-----2--
D--------------------2-----3--
A-----------------------------
E-----------------------------

e-----------------
B--------1-0------
G--2-0-2-----0-2--
D--------------2--
A-----------------
E-----------------

e------------------------------------------
B------------------------------------------
G------------------------------------------
D--9-10-----12----------9-10---------------
A--------12-------------------12-12--------
E------------------------------------------

e---------------------------------------
B---------------------------------------
G---------------------------------------
D--9-10-----12----------10-9-10---------
A--------12----------------------12-12--
E---------------------------------------

e---------------------------------------------
B---------------------------------------------
G-----9-----12----------11-9-11---------------
D--12----10----------------------12-12--------
A---------------------------------------------
E---------------------------------------------

e-------------------------------------------
B-----10-----13----------12-10-12-----------
G--12-----10-----------------------12-12----
D-------------------------------------------
A-------------------------------------------
E-------------------------------------------

e------------------------------------------
B------------------------------------------
G------------------------------------------
D--9-10-----12----------9-10---------------
A--------12-------------------12-12--------
E------------------------------------------

e---------------------------------------
B---------------------------------------
G---------------------------------------
D--9-10-----12----------10-9-10---------
A--------12----------------------12-12--
E---------------------------------------

Repeat

2 comments on Amarant's Theme

sounds awesome man. very bad

sounds awesome man. very bad ass

played it, sounded awsome.

5

played it, sounded awsome.