Login or Register to remove this ad. | Advertise Here

Breezy (Final Fantasy VIII) Guitar Tab

Submitted: Oct 01, 2007 by archard (Last updated: Sep 16, 2009)

4.608695
Average: 4.6 (23 votes)
Download | Listen
Game: Final Fantasy VIII
Composer(s): Nobuo Uematsu
Style: Transcription
Series: Final Fantasy

This song is also called Oceanside

AutoScroll: Slow | Medium | Fast
Breezy
Final Fantasy VIII
Composed by Nobuo Uematsu
Tabbed by Richard Schaefer (richard@gametabs.net)
7/27/06

e--------2-----2---------2-----2---------0-----0---------3-----3
B------0---0-----------0---0-----------0---0-----------0---0----
G----2-------2-------2-------2-------0-------0-------0-------0--
D--0---------------0---------------0---------------0------------
A---------------------------------------------------------------
E---------------------------------------------------------------

e--------2-----2---------2-----2---------0-----0---3-----2-----0--
B------0---0-----------0---0-----------0---0---------0-3-----3----
G----2-------2-------2-------2-------0-------0-------------2---0-3
D--0---------------0---------------0---------------0-----0--------
A-----------------------------------------------------------------
E-----------------------------------------------------------------

e--------2-----2---------2h3h2-----2---------0-----0---------3-----3--
B------2---2-----------2-------2-----------3---3---------2-0---2-0---2
G----2-------2-------2-----------2-------0-------0--------------------
D--0---------------0-------------------0---------------0--------------
A---------------------------------------------------------------------
E---------------------------------------------------------------------

e--------2-----2---5---3---2---3---2---3---0
B------2---2-------------------------------2
G----2-------2-----------------------------2
D--0---------------------------------------0
A-------------------------------------------
E-------------------------------------------

e--2-----2-----2---5-----5-----5---7-----7-----7---5-----5-----5
B----3-----3---------6-----6---------8-----8---------6-----6----
G------2-----2---------5-----5---------7-----7---------5-----5--
D---------------------------------------------------------------
A---------------------------------------------------------------
E--------------------------------------------------------------- x2

e--5-14-10-5
B-----------
G-----------
D-----------
A-----------
E-----------

e--------3-----3-----5-----3-----------------3-----------5-----3------
B----0-3---3-0---------3-0---3-0-3---------3---3---3-------3-----3---3
G----------------------------------------3-------3-----------3-----3--
D--0-----------------------------------0------------------------------
A---------------------------------------------------------------------
E---------------------------------------------------------------------

e--------2-----2-------2-----2-----------2---------5
B------0-----0-------0-----0---------0-3---3-0-3---3
G----2-----2-------2-----2-------------------------3
D--0-------------0-----------------0---------------0
A---------------------------------------------------
E---------------------------------------------------

Property of gametabs.net

15 comments on Breezy

Really nice archard, I need

Really nice archard, I need to learn this.

i can play this song fluidly

i can play this song fluidly now!!! the line thingy should be 2h3p2(hammer on the 3rd fret and slide the finger to the 2nd fret) it give a really nice sound.

This looks completely wrong

This looks completely wrong to me...
The beginning is good, then the most part looks wrong o_o

What is the tempo for this

What is the tempo for this song?

um some stuff are wrong

um some stuff are wrong because i heard your recording yeah you need to fix some just the slightest details but other than that it is a great tab i gave you five stars.

sorry it wasnt your

sorry it wasnt your recording but it doesnt matter you should probably listen to the recording but it still a great tab

damn it this is hard. but

damn it this is hard. but thats only cuz im a semi beginner. great tab by the way

shouldnt the 5-14-10-5 part

shouldnt the 5-14-10-5 part be harmonics?something like 7th fret D string,7th fret B string,7th fret G string,and than 7th fret D string again?

nice. I've never even

nice. I've never even played this game, but I like the song, and I like the tab. Thumbs up!

when i first started this

when i first started this song i was just a beginner and this song is really easy but now i have been playing guitar for year+ but im like intermidate now but im pretty good for a girl as boys say it gets on my nerves when they say that.

Fantastic overall

4

Fantastic overall (especially if you did this yourself), but this website

http://ffmusic.ffshrine.org/ff8sheet/ff8-sheet-music.php

Says things a little differently (#14). Plus, it becomes kind of obvious when the 4321231 string pattern falls apart midsong and the open fourth baseline is strangely absent in some places.

most of this song is

most of this song is correct, theres a few things here and there that arent so much note errors as rhythm errors, but it only takes a couple tweaks to make it sound just like the original, and the nice thing is, it doesnt require many harmonics, you can play it note for note and it sounds just as beautiful as if somebody dressed it up, i dont think it really needs much. it was written to be just as the name implies.

This song is great!!!

5

This song is great!!!

Fun and easy to play

5

Fun and easy to play

Fantastic

5

Good and easy, Way to go archard