Login or Register to remove this ad. | Advertise Here

Cosmo Canyon (Final Fantasy VII) Guitar Tab

Submitted: Oct 01, 2007 by archard (Last updated: Dec 04, 2010)

4.2
Average: 4.2 (5 votes)
Download | Listen
Game: Final Fantasy VII
Composer(s): Nobuo Uematsu
Style: Transcription
Series: Final Fantasy

This song is also called Valley of the Fallen Star

AutoScroll: Slow | Medium | Fast
e--0-0-0---0-3---3-5-3-7-7-7-5---5-7---5---5-7---3-0-0-------3-0---0
B--------3---------------------8---------8-----------------3-----3--
G-------------------------------------------------------------------
D-------------------------------------------------------------------
A-------------------------------------------------------------------
E-------------------------------------------------------------------

e-----0-0-0---0-3---3-5-3-7-7-7-5---5-7---5---5-7---3-0-0-------3-0---0
B-0-3-------3---------------------8---------8-----------------3-----3--
G----------------------------------------------------------------------
D----------------------------------------------------------------------
A----------------------------------------------------------------------
E----------------------------------------------------------------------

e-------0-0-0-2-0------------0-0-3-2-0--
B--0-3------------3-----0-3------------3
G---------------------------------------
D---------------------------------------
A---------------------------------------
E---------------------------------------

e-----------------------------
B----------0-----1---0-1-3---0
G--2---0-2--------------------
D-----------------------------
A-----------------------------
E-----------------------------

e-------0-0-0-2-0------------0-0-3-2-0--
B--0-3------------3-----0-3------------3
G---------------------------------------
D---------------------------------------
A---------------------------------------
E---------------------------------------

e----------------------------0----------3-0---0
B----------0-----1---0-1-3---------------------
G--2---0-2-------------------------------------
D----------------------------------------------
A----------------------------------------------
E----------------------------------------------

2 comments on Cosmo Canyon

Awesome tab Chaz, you should

Awesome tab Chaz, you should do some more.

Yeah man this is so cool.

Yeah man this is so cool.