Login or Register to remove this ad. | Advertise Here

Cosmo Canyon (Final Fantasy VII) Bass Tab

Submitted: Oct 01, 2007 by archard (Last updated: Dec 04, 2010)

4.5
Average: 4.5 (2 votes)
Download | Listen
Game: Final Fantasy VII
Composer(s): Nobuo Uematsu
Style: Transcription
Series: Final Fantasy

This song is also called Valley of the Fallen Star

AutoScroll: Slow | Medium | Fast
Valley of the Fallen Star
Final Fantasy VII
Composed by Nobuo Uematsu
Tabbed by Richard Schaefer (richard@gametabs.net)
8/18/06

G----------------------------------0h2-2-2-2---
D--0h2-2-2-2-------0-0h2-2-2-2-----------------
A----------------2-----------------------------
E----------------------------------------------

G---------------------------------
D----0-0h2-2-2-2-------0-0h2-2-2-2
A--2-----------------2------------
E---------------------------------

Then everything else kicks in

G----------------------------------0-4-0h2-2-2-2---
D--0h2-2-2-2-----2-0-4h5-5-5-5---------------------
A--------------------------------------------------
E--------------------------------------------------

G--2------------------------------
D----0-0h2-2-2-2-----2-0-0h2-2-2-2
A---------------------------------
E---------------------------------

G--------------------------------------0-4-0h2-2-2-2---
D--2-0-0h2-2-2-2-----2-0-4h5-5-5-5---------------------
A------------------------------------------------------
E------------------------------------------------------

G--2------------------------------
D----0-0h2-2-2-2-----2-0-0h2-2-2-2
A---------------------------------
E---------------------------------

G------------------------------------
D--2-0-0h2-2-2-2-------0-0h2-2-2-2---
A--------------------2---------------
E------------------------------------

G-----------------------------------
D----0---------------------4h5-5-5-5
A--2-----------------3--------------
E------3h5-5-5-5--------------------

G----------------------------------------------------
D----0-0h2-2-2-2-------0-0h2-2-2-2-------0-----------
A--2-----------------2-----------------2---0-----3---
E----------------------------------------------------

G------------------------------------------------------
D------------------------------------------------------
A--3--3-3-3--3-3-3--3-3-3--3-3-3--3-3-3--3-3-3--3-3-3-2
E------------------------------------------------------

G-----------------------------------------------------------------
D--0h2-2-2-2-------0-0h2-2-2-2-------0-0h2-2-2-2-------0-0h2-2-2-2
A----------------2-----------------2-----------------2------------
E-----------------------------------------------------------------