Login or Register to remove this ad. | Advertise Here

Costa Del Sol (Final Fantasy VII) Guitar Tab

Submitted: Oct 01, 2007 by archard

5
Average: 5 (6 votes)
Download | Listen
Game: Final Fantasy VII
Composer(s): Nobuo Uematsu
Style: Transcription
Series: Final Fantasy

AutoScroll: Slow | Medium | Fast
Costa Del Sol
Final Fantasy VII
Composed by Nobuo Uematsu
Tabbed by Richard Schaefer (richard@gametabs.net)
8/15/06

e----0----------------------------------------------------
B--1---3----------------------------1--3----------1-0-----
G------------0-1-2-------0-2--2-0-2-------2-----2-----3---
D----------------------2----------------------------------
A---------------------------------------------------------
E---------------------------------------------------------

e---------------------------1--0
B-----------------------1-3-----
G------0-----0-2-3--2-3---------
D--3-4--------------------------
A-------------------------------
E------------------------------- x2

e--0-----0----------3--1--0----------0--1--2----------5--3--2
B-----3------------------------------------------------------
G------------------------------------------------------------
D------------------------------------------------------------
A------------------------------------------------------------
E------------------------------------------------------------

5 comments on Costa Del Sol

Haha, Yes! This is perfect,

Haha, Yes!

This is perfect, it goes great with the chords.

sweet lol this is great lol

sweet lol this is great lol

thanks a lot

for posting the chords

plus this is perfect archard 5*

This tab goes so well with

This tab goes so well with this as an accompaniment:

http://www.videogamejam.com/psx/ffantasy7_costadelsol.txt

sorry for posting a link, but it's meant to be :)
Plus, I like this song so it's completely unacceptable that the pieces aren't together.

five stars, but isnt it

5

five stars, but isnt it missing some?