Login or Register to remove this ad. | Advertise Here

Cid's Theme (Final Fantasy VII) Guitar Tab

Submitted: Oct 01, 2007 by archard (Last updated: Oct 05, 2007)

4.375
Average: 4.4 (8 votes)
Download | Listen
Game: Final Fantasy VII
Composer(s): Nobuo Uematsu
Style: Transcription
Series: Final Fantasy

AutoScroll: Slow | Medium | Fast
Cid's Theme
Final Fantasy VII
Composed by Nobuo Uematsu
Tabbed by Richard Schaefer
richard@gametabs.net
7/15/06

e-------------------------------------------------
B------------------------------------------0-1----
G--------------0-2-3-0-----------2-0-2---2-----2--
D------5-3-5-----------0-------0-----------------2
A--3----------------------------------------------
E-------------------------------------------------

e------------------------1------------------------
B----------0-1---3-4---3---4---1-----3------------
G--2-0-2-------------------------0-----3-0-----1-0
D--------------------------------------------3----
A-------------------------------------------------
E-------------------------------------------------

7 comments on Cid's Theme

Sounds great man. Played

Sounds great man. Played it, picked it up in five minutes, It's as badass as Cid himself =)

it should be 0 1 3 4

it should be 0 1 3 4 then 4 3 THEN 3 and jump up to 1 on the E string.

Maybe I was thinking of the

Maybe I was thinking of the Highwind's Theme?

Yeah, good tab, maybe try

Yeah, good tab, maybe try doing the whole thing though mate?
but good tab

i've tabbed the missing

i've tabbed the missing second part of his theme myself as best i can, it's the first time i've done this, and i'm not sure how in tune i am so it might be a little off, feel free to criticise

i don't think submitting a whole new tab is much point so i'll just post it here

e--3-1-3-4-6-----4-3-4-6-3---11-----10-8-10-11-4---
B---------------------------------4------------------------------

e--1-3-4-1-3-6-----3-6-3-------4-3-4-6-3---11------
B------------------------------4------------------4----------

e--10-8-10-11-15-11-8-----10-11-----
B------------------------------------------------

enjoy :)

I wont

criticize at all i think it is a great way to finish archards version here

this is not 5 stars lol

2

bbrgwrgv