Login or Register to remove this ad. | Advertise Here

Cait Sith's Theme (Final Fantasy VII) Bass Tab

Submitted: Oct 01, 2007 by archard (Last updated: May 07, 2008)

4
Average: 4 (2 votes)
Download | Listen
Game: Final Fantasy VII
Composer(s): Nobuo Uematsu
Style: Transcription
Series: Final Fantasy

AutoScroll: Slow | Medium | Fast
Cait Sith's Theme
Final Fantasy VII
Composed by Nobuo Uematsu
Tabbed by Richard Schaefer (richard@gametabs.net)
8/31/06

G--------------1------------------------------
D--3---------------3--------------------------
A------3---4-----------3---4---6-4----3-----3-
E-----------------------------------4---6-2---

G--------------1--------------------------
D--3---------------3-----------1-1-2-2-4-4
A------3---4-----------3---4-4------------
E-----------------------------------------

G--------------1-----------------2------------------1-
D--3---------------3---------------4--2-3-------------
A------3---4-----------3---4----------------3---4-----
E-----------------------------------------------------

G------------------------------1--------------------
D--3-------3-------3---------------3---1---0--------
A------3-------3-------3---4-------------------4---3
E---------------------------------------------------

G-----------1------0---1---0-----5-----------------
D--------------3---------------3---3-5---------0--2
A--4--4--3-------------------------------3--3------
E--------------------------------------------------

G--------------1------------------------------
D--3---------------3--------------------------
A------3---4-----------3---4---6-4----3-----3-
E-----------------------------------4---6-2---

G--------------1--------------------------
D--3---------------3-----------1-1-2-2-4-4
A------3---4-----------3---4-4------------
E-----------------------------------------

G-----1--0-----------------------------------
D-----------3--0-1-3-------------------------
A--1-----------------1-------1-1-------1-1---
E--------------------------1---------1-------

G-----------------------------------------
D-----1--0--------------------------------
A-----------3--0-1-3----------------------
E--1-----------------1-----1-4-4-----1-4-4

G-----1--0--------------------------------------------------------
D-----------3--0-1-3----------------------------------------------
A--1-----------------1-------1-1-------1-1-----3-----1------------
E--------------------------1---------1---------------------4-----3

Repeat

**Revised 3/12/07 for accuracy

2 comments on Cait Sith's Theme

I just realized part of this

I just realized part of this tab was wrong, so I fixed it.

Perfect

This is perfect in every way, thanks, one of the most enjoyable FFVII songs to play on bass