Login or Register to remove this ad. | Advertise Here

Battle Theme (Final Fantasy VII) Guitar Tab

Submitted: Oct 01, 2007 by archard (Last updated: Sep 15, 2009)

4.22222
Average: 4.2 (9 votes)
Download | Listen
Game: Final Fantasy VII
Composer(s): Nobuo Uematsu
Style: 2 or more instruments, Transcription
Series: Final Fantasy

AutoScroll: Slow | Medium | Fast
                                 Battle Theme                                   

Lead
                         PM     PM     PM
     W                   S  S S S  S S S  S S S S S S  S S S
E||-------------------|--1--1-1-1--1-1-1--1-1-1-----2p-1---2-|
B||-------------------|--1------1------1--------1-4------4---|
G||-------------------|--------------------------------------|
D||-------------------|--------------------------------------|
A||-------------------|--------------------------------------|
E||-------------------|--------------------------------------|

  PM     PM     PM                   PM     PM     PM
  S  S S S  S S S  S S S E  E  E     S  S S S  S S S  S S S S S S  S S S
--1--1-1-1--1-1-1--1-1-1----------|--1--1-1-1--1-1-1--1-1-1-----2p-1---2-|
--1------1------1--------4--4--4--|--1------1------1--------1-4------4---|
-------------------------5--3--3--|--------------------------------------|
----------------------------------|--------------------------------------|
----------------------------------|--------------------------------------|
----------------------------------|--------------------------------------|

  PM     PM     PM
  S  S S S  S S S  S S S S  S  S  S  S  S    E.   S  E  E   S E.   E   E
--1--1-1-1--1-1-1--1---1------------------|--------------------------------|
--1------1------1--------4p-1h-4p-1h-4p-1-|--------------------------------|
------------------------------------------|--------------------------------|
------------------------------------------|----------------------------1~--|
------------------------------------------|-------------------1~---3~------|
------------------------------------------|--1~---3~-L--4~--L--------------|

  E.  S E  E  S E.  E  E     E.  S E  E  S E.  Q
--------------------------|--1---3-L--4--L-6---8----|
--------------------1--4--|-------------------------|
------0-L--1--L-3---------|-------------------------|
--3-----------------------|-------------------------|
--------------------------|-------------------------|
--------------------------|-------------------------|

  PM PM PM PM PM PM PM PM PM
  S  S  S  S  S  S  S  S  S  S S S S S S S    S S S S S S S S S S S S S S E
-----1--1-----1--1-----1--1----------------|----1-3-4-6-4-3-6-4-1---2-L-2----|
-----1--1-----1--1-----1--1----------------|----------------------4-------4--|
-------------------------------0-1-3-1-0-3-|--1------------------------------|
--3--------3--------3--------3-------------|---------------------------------|
-------------------------------------------|---------------------------------|
-------------------------------------------|---------------------------------|

  E.   S  E  E   S E.   E   E      E.  S E  E  S E.  E  E
--------------------------------|--------------------------|
--------------------------------|--------------------1--4--|
--------------------------------|------0-L--1--L-3---------|
----------------------------1~--|--3-----------------------|
-------------------1~---3~------|--------------------------|
--1~---3~-L--4~--L--------------|--------------------------|

                            PM PM PM PM PM PM PM PM PM
  E.  S E  E  S E.  Q       S  S  S  S  S  S  S  S  S  S S S S S S S
--1---3-L--4--L-6---8----|-----1--1-----1--1-----1--1----------------|
-------------------------|-----1--1-----1--1-----1--1----------------|
-------------------------|-------------------------------0-1-3-1-0-3-|
-------------------------|--3--------3--------3--------3-------------|
-------------------------|-------------------------------------------|
-------------------------|-------------------------------------------|

                                    PM PM PM PM PM PM PM PM PM
  S S S S S S S S S S S S S S E     S  S  S  S  S  S  S  S  S  S S S S S S S
----1-3-4-6-4-3-6-4-----2-L-2----|-----1--1-----1--1-----1--1----------------|
--------------------6-4-------4--|-----1--1-----1--1-----1--1----------------|
--1------------------------------|-------------------------------0-1-3-1-0-3-|
---------------------------------|--3--------3--------3--------3-------------|
---------------------------------|-------------------------------------------|
---------------------------------|-------------------------------------------|

  S S S S S S S S S S S S S S S S    S S S S S S S S E  S S S S E
----1-3-4-6-4-3---1---1-3-4-3-4-6-|----8-6-8-6------------------1--|
----------------1---4-------------|------------9-6-8-9--2-1-L-4----|
--1-------------------------------|--------------------------------|
----------------------------------|--------------------------------|
----------------------------------|--------------------------------|
----------------------------------|--------------------------------|

  S S S S S S S S E  S S S S S S    S S S S S S S S S S S S S S S S
---------------------------1-3-4-|----4---1-3-1-----1-----------1---|
--------------1-2-4--2-4-L-------|------4-------4-2-----1-2-4-2---2-|
----1-0-1-L-3--------------------|--------------------3-------------|
---------------------------------|----------------------------------|
---------------------------------|----------------------------------|
---------------------------------|----------------------------------|

  S E  S E  E  S S S S S S S S    S S E  S E  S E   S S S S S S
-------------------------1-3-4-|------4----6----8-----9-L-8-----|
----2--1-L---------1-2-4-------|----6----8----9----11-------9-6-|
------------3--L-3-------------|--------------------------------|
-------------------------------|--------------------------------|
-------------------------------|--------------------------------|
-------------------------------|--------------------------------|

  S S E  S E  S E   S S S S S S    S S E  S E  S E  S S S  S S S
------4----6----8-----9-L-8-----|-----------4----6----8-L--------|
----6----8----9----11-------9-6-|------8--6----8----9-----11-8---|
--------------------------------|----8-------------------------8-|
--------------------------------|--------------------------------|
--------------------------------|--------------------------------|
--------------------------------|--------------------------------|

  S S E  S E  S E   S S S S S S    S S E  S E  S E   S S S S S S
------4----6----8-----9-L-8-----|------4----6----8-----9-L-8-----|
----6----8----9----11-------9-6-|----6----8----9----11-------9-6-|
--------------------------------|--------------------------------|
--------------------------------|--------------------------------|
--------------------------------|--------------------------------|
--------------------------------|--------------------------------|

                                   ^   ^    ^
  S S E  S E  S E  S S S  S S S    E.  S E  E  H
-----------4----6----8-L--------|--1---1----1-----------||
------8--6----8----9-----11-8---|--1---1----1-----------||
----8-------------------------8-|--1---1----1-----------||
--------------------------------|-----------------------||
--------------------------------|-----------------------||
--------------------------------|-----------------------||





                                 Battle Theme                                   

Rhythm
     W                   E.  S E  E  S E.  E  E     S E  S E  E  E  E  E  E
E||-------------------|--------------------------|----1--1----1--------------|
B||-------------------|--1---1----1----1---1-----|--1----1----1-----4--4--4--|
G||-------------------|--x---x----x----x---x--3--|------------------5--3--3--|
D||-------------------|--3---3----3----3---3--1--|---------------------------|
A||-------------------|--------------------------|---------------------------|
E||-------------------|--------------------------|---------------------------|

  E.  S E  E  S E.  E  E     E.  S E  E  S S E  E  E
--1---1----1----1---1--2--|--1---1----1----1----------|
--1---1----1----1---1--2--|--1---1----1----1-4--4--4--|
--------------------------|------------------3--3--3--|
--------------------------|---------------------------|
--------------------------|---------------------------|
--------------------------|---------------------------|

  E.  S E  E  S E.  E  E     E.  S E  E  S E.  E  E     E.  S E  E  S E.  Q
-----------1----1---------|--------------------------|-------------------------|
--1---1----1----1---------|------1---------1---1--1--|-------------------------|
-----------------------3--|--1---1----1----1---1--0--|--3---3----3----3---3----|
--------------------------|--3-----------------------|--3---3----3----3---3----|
--------------------------|--------------------------|-------------------------|
--------------------------|--------------------------|-------------------------|

  E.  S E  E  S E.  E  E     E.  S E  E  S S E  E  E
--------------------------|---------------------------|
--1---1----1----1---1--2--|--1---1----1----1-2--2--2--|
--x---x----x----x---x--x--|--x---x----x----x-x--x--x--|
--3---3----3----3---3--4--|--3---3----3----3-4--4--4--|
--------------------------|---------------------------|
--------------------------|---------------------------|

  E.  S E  E  S E.  E  E     E.  S E  E  S E.  E  E     E.  S E  E  S E.  Q
--1---1----1----1---1-----|--------------------------|-------------------------|
--1---1----1----1---------|--2---2----2----2---2--1--|-------------------------|
-----------------------3--|--1---1----1----1---1--0--|--3---3----3----3---3----|
--------------------------|--------------------------|--3---3----3----3---3----|
--------------------------|--------------------------|-------------------------|
--------------------------|--------------------------|-------------------------|

  E.  S E  E  S E.  E  E     E.  S E  E  S S E  E  E
--------------------------|---------------------------|
--1---1----1----1---1--2--|--1---1----1----1-2--2--2--|
--x---x----x----x---x--x--|--x---x----x----x-x--x--x--|
--3---3----3----3---3--4--|--3---3----3----3-4--4--4--|
--------------------------|---------------------------|
--------------------------|---------------------------|

  E.  S E  E  S E.  E  E     E.  S E  E  S S E  E  E
--------------------------|---------------------------|
--1---1----1----1---1--2--|--1---1----1----1-1--------|
--x---x----x----x---x--x--|--x---x----x----x-x--3--3--|
--3---3----3----3---3--4--|--3---3----3----3-3--1--1--|
--------------------------|---------------------------|
--------------------------|---------------------------|

  E.  S E  E  Q    E  E     E.  S E  E  S E.  E  E     E.  S E  E  S E.  E  E
-------------------------|--------------------------|--------------------------|
--2---2----2-------2--2--|--2---2----2----2---1--1--|--------------------------|
--x---x----x-------x--x--|--x---x----x----x---x--x--|--3---3----3----3---3--3--|
--3---3----3-------3--3--|--3---3----3----3---3--1--|--3---3----3----3---3--3--|
-------------------------|--------------------------|--------------------------|
-------------------------|--------------------------|--------------------------|

  E.  S E  E  S E.  E  E     H.           E  E     H.           E  E
--------------------------|---------------------|---------------------|
--------------------------|---------------------|---------------------|
--3---3----3----3---3--3--|---------------------|---------------------|
--3---3----3----3---3--3--|--3------------L--3--|--3------------L--3--|
--------------------------|--3------------L--3--|--4------------L--4--|
--------------------------|--1------------L--1--|--4------------L--4--|

  H.           E  E     H.           E  E     H.           E  E
---------------------|---------------------|---------------------|
---------------------|---------------------|---------------------|
---------------------|---------------------|---------------------|
--1------------L--1--|--3------------L--3--|--3------------L--3--|
--1------------L--1--|--3------------L--3--|--4------------L--4--|
--3------------L--3--|--1------------L--1--|--4------------L--4--|

  H.           E  E     E.  S E  E  H
---------------------|-----------------------||
---------------------|--1---1----1-----------||
---------------------|--x---x----x-----------||
--1---------------1--|--3---3----3-----------||
--1------------1--1--|-----------------------||
--1------------------|-----------------------||





                                 Battle Theme                                   

Overdub (Guitar Harmony)
     W                   W                   W
E||-------------------|-------------------|-------------------|
B||-------------------|-------------------|-------------------|
G||-------------------|-------------------|-------------------|
D||-------------------|-------------------|-------------------|
A||-------------------|-------------------|-------------------|
E||-------------------|-------------------|-------------------|

  W                   W                   W
-------------------|-------------------|-------------------|
-------------------|-------------------|-------------------|
-------------------|-------------------|-------------------|
-------------------|-------------------|-------------------|
-------------------|-------------------|-------------------|
-------------------|-------------------|-------------------|

  E.  S E  E  S E.  E  E     E.  S E  E  S E.  Q       W
--------------------------|-------------------------|-------------------|
--------------------------|--2--------2--L-4---6----|-------------------|
-----------------------1--|------3-L----------------|-------------------|
----------------1---3-----|-------------------------|-------------------|
--4---1-L--3--L-----------|-------------------------|-------------------|
--------------------------|-------------------------|-------------------|

  W                   W                   E.  S E  E  S E.  E  E
-------------------|-------------------|--------------------------|
-------------------|-------------------|--------------------------|
-------------------|-------------------|-----------------------1--|
-------------------|-------------------|----------------1---3-----|
-------------------|-------------------|--4---1-L--3--L-----------|
-------------------|-------------------|--------------------------|

  E.  S E  E  S E.  Q       W                   W
-------------------------|-------------------|-------------------|
--2--------2--L-4---6----|-------------------|-------------------|
------3-L----------------|-------------------|-------------------|
-------------------------|-------------------|-------------------|
-------------------------|-------------------|-------------------|
-------------------------|-------------------|-------------------|

  W                   W                   W
-------------------|-------------------|-------------------|
-------------------|-------------------|-------------------|
-------------------|-------------------|-------------------|
-------------------|-------------------|-------------------|
-------------------|-------------------|-------------------|
-------------------|-------------------|-------------------|

  S S S S S S S S E  S S S S S S    W
---------------------------------|-------------------|
---------------------------1-4-6-|-------------------|
--------------1-3-5--3-5-L-------|-------------------|
----3-1-3-L-5--------------------|-------------------|
---------------------------------|-------------------|
---------------------------------|-------------------|

  S E  S E  E  S S S S S S S S    W                   W
-------------------------------|-------------------|-------------------|
-------------------------2-4-6-|-------------------|-------------------|
-------------------1-3-5-------|-------------------|-------------------|
----3--1-L-------3-------------|-------------------|-------------------|
------------4--L---------------|-------------------|-------------------|
-------------------------------|-------------------|-------------------|

  W                   S S E  S E  S E  S S S S S S
-------------------|----------------4--------------|
-------------------|------6----8--6----8-9-L-8-----|
-------------------|----5----8---------------------|
-------------------|-------------------------------|
-------------------|-------------------------------|
-------------------|-------------------------------|

  S S E  S E  S E  S S S S S S    S S E  S E  S E  S S S S S S
---------------------6-L-4-----|-------------------------------|
------6----8--6----8-----------|-----------6--4-8--6-----8-----|
----6----8---------------------|------8--------------------8---|
-------------------------------|----8------------------------8-|
-------------------------------|-------------------------------|
-------------------------------|-------------------------------|

  W
-------------------||
-------------------||
-------------------||
-------------------||
-------------------||
-------------------||

Duration Legend
---------------
W - whole
H - half
Q - quarter
E - 8th
S - 16th
T - 32nd
X - 64th
. - note dotted
|-n-|  - n-tuplets

14 comments on Battle Theme

So are you all happy? I got

So are you all happy? I got a full version of this tab. Boss Battle theme is next :)

wow, just wow

wow, just wow

I'll count that as a

I'll count that as a positive response :D

can you make the battle

can you make the battle theme for bass?
and boss if so.

Archard....Final Fantasy 9

Archard....Final Fantasy 9 Battle Tab, Man....

Please?

Please?

Joe, I'll try making one for

Joe, I'll try making one for you guys.

I'm still not very good at guitar, but I have a great ear, but be a bit patient, I'm Polish ;)

What does the L in the tabs

What does the L in the tabs mean?

What is a tied note?

What is a tied note?

is this in drop D?

is this in drop D?

not bad tab ive seen beta

not bad tab ive seen beta though

Hey. I really like this tab.

Hey. I really like this tab. You did a GREAT job. I've been wanting to learn a few of these songs and I finally found this site today. So i'm really pumped to learn all of these!

This is an awesome tab,

5

This is an awesome tab, everywhere I look, I can only find the Boss Theme, it's a breath of fresh air to finally find this!!! XD

Ah, sweet nostalgia

The tab is quite impossible for me, but it made me smile listening to that battle music again after so long :) I've always found your other tabs to be spot on archard, so I'll simply trust that this one is as well, it looks right