Login or Register to remove this ad. | Advertise Here

Barrett's Theme (Final Fantasy VII) Guitar Tab

Submitted: Oct 03, 2007 by Kabukibear (Last updated: Sep 20, 2009)

4.772725
Average: 4.8 (22 votes)
Download | Listen
Game: Final Fantasy VII
Composer(s): Nobuo Uematsu
Style: Arrangement, Fingerstyle
Series: Final Fantasy

AutoScroll: Slow | Medium | Fast
Barrett's Theme                                  
~Final Fantasy VII~
Composed by: Nobuo Uematsu
Arranged by: Justin Lincoln

bpm=150


     Q    E  E  Q    Q       Q    E  E  Q    E  E     Q    E  E  Q    E  E   
E||-----------------------|------------------------|------------------------|
B||-------2--1--2---------|------------------2--1--|--2-------0--2----0-----|
G||-----------------------|-------------0----------|-------2-------------2--|
D||-----------------------|-------2--4-------------|------------------------|
A||--0---------------0----|--0---------------0-----|--0---------------0-----|
E||-----------------------|------------------------|------------------------|


  E  E  E  E  Q    Q       Q    E  E  Q    Q       Q    E  E  Q    E  E   
------------------------|-----------------------|------------------------|
-----0-----0------------|-------2--1--2---------|------------------2--1--|
--0---------------------|-----------------------|-------------0----------|
--0-----4-----2---------|-----------------------|-------2--4-------------|
--------------0----0----|--0---------------0----|--0---------------0-----|
--3---------------------|-----------------------|------------------------|


  Q    E  E  Q    E  E     E  E  E  E  Q    Q       Q     Q     Q     Q     
------------------------|------------------------|-------12----10----12----|
--2-------0--2----0-----|-----0-----0------------|-------------------------|
-------2-------------2--|--0---------------------|-------------------------|
------------------------|--0-----4-----2---------|-------------------------|
--0---------------0-----|--------------0----0----|--0-----------------0----|
------------------------|--3---------------------|-------------------------|


  Q     Q    Q    Q       Q    Q    Q    Q       Q    E  E  Q    E  E   
--9---------------0----|-------7----5---------|--L----0--2--3----2--1--|
-------10----8---------|--8-------------------|------------------------|
-----------------------|----------------------|------------------------|
-----------------------|----------------------|------------------------|
--0---------------0----|--0--------------0----|-------------0----------|
-----------------------|----------------------|--0---------------------|


  Q    Q    Q    Q       Q    E  E  Q    Q       E  E  E  E  Q    Q     
--0-------------------|-----------------------|------------------------|
------------2---------|-------0--3--2---------|--0---------------------|
-------2--------------|------------------2----|-----2--0---------------|
----------------------|-----------------------|-----------4--2---------|
--0--------------0----|--0---------------0----|--0----------------0----|
----------------------|-----------------------|------------------------|


  Q    E  E  H           Q     Q     Q     Q       Q     Q    Q    Q     
----------------------|-------12----10----12----|--9---------------0----|
----------------------|-------------------------|-------10----8---------|
----------------------|-------------------------|-----------------------|
--L----0--4--2--------|-------------------------|-----------------------|
-------------0--------|--0-----------------0----|--0---------------0----|
--0-------------------|-------------------------|-----------------------|


  Q    Q    Q    Q       Q    E  E  E  E  E  E     Q    Q    Q    Q     
-------7----5---------|--L-------------5--7--5--|--9--------------5----|
--8-------------------|-------5--7--8-----------|----------------------|
----------------------|-------------------------|-------6----5----6----|
----------------------|-------------------------|----------------------|
--0--------------0----|-------------0-----------|--0--------------0----|
----------------------|--0----------------------|----------------------|


  Q    Q    Q    Q       Q    Q    Q    Q       Q    Q    Q    Q     
--0-------------------|----------------------|----------------------|
----------------------|-------0--------------|----------------------|
-------5----6----2----|--0---------2---------|------------0---------|
----------------------|-----------------2----|--4----2---------2----|
--0--------------0----|--0--------------0----|------------0---------|
----------------------|----------------------|--0-------------------|


  H        Q    Q       Q    H        Q       Q    H        Q     
-----------2---------|-------3--------2----|--L------------------|
--3-------------1----|--3------------------|-------1--------3----|
---------------------|---------------------|---------------------|
--0-------------0----|--0-------------0----|--0-------------0----|
---------------------|---------------------|---------------------|
---------------------|---------------------|---------------------|


  Q    Q    Q    Q       E  E  E  E  Q    Q       H        E  E  E  E   
----------------------|------------------------|-----------------------|
--L----3----1----0----|--1--3--1--0------------|-----------------------|
----------------------|--------------2---------|--L--------2--0-----0--|
------------0---------|--0---------------------|-----------------4-----|
--3-------------------|-------------------5----|--5--------------------|
----------------------|------------------------|-----------------------|


  W                   H        H           Q     Q     Q     Q     
-------------------|--------------------|-------12----10----12----|
-------------------|--------------------|-------------------------|
--2----------------|--------------------|-------------------------|
--0----------------|--2--------1--------|-------------------------|
-------------------|--3--------2--------|--0-----------------0----|
-------------------|--------------------|-------------------------|


  Q     Q    Q    Q       Q    Q    Q    Q       Q    E  E  E  E  E  E   
--9---------------0----|-------7----5---------|--L-------------5--7--5--|
-------10----8---------|--8-------------------|-------5--7--8-----------|
-----------------------|----------------------|-------------------------|
-----------------------|----------------------|-------------------------|
--0---------------0----|--0--------------0----|-------------0-----------|
-----------------------|----------------------|--0----------------------|


  Q    Q    Q    Q       Q    E  E  Q    Q       E  E  E  E  Q    Q     
--9--------------5----|--L--------------------|------------------------|
----------------------|-------0--3--2---------|--0---------------------|
------------6---------|------------------2----|-----2--0---------------|
-------7--------------|-----------------------|-----------4--2---------|
--0--------------0----|--0---------------0----|--0----------------0----|
----------------------|-----------------------|------------------------|


  Q    E  E  H           Q    E  E  Q    Q       Q    E  E  Q    Q     
----------------------|-----------------------|-----------------------|
----------------------|----------1--3----1----|--0-------1--0---------|
----------------------|-------0---------------|-------2----------0----|
--L----0--4--2--------|--2---------------2----|--2---------------2----|
-------------0--------|--3---------------3----|--3---------------3----|
--0-------------------|-----------------------|-----------------------|


  Q    E  E  Q    Q       H        H           Q    Q    Q    Q     
-----------------------|--------------------|----------------------|
-----------------------|--------------------|------------0---------|
-------------0---------|--------------------|----------------------|
--4----2--4-------2----|--0--------2--------|--4----2--------------|
--3---------------3----|--1--------3--------|--2--------------2----|
-----------------------|--------------------|----------------------|


  Q    Q    Q    Q       Q    Q    Q    Q       H        H         
-------0----7---------|----------------------|--------------------|
--7-------------------|------------0---------|--L-----------------|
----------------------|----------------------|--------------------|
----------------------|--4----2--------------|--------------------|
----------------------|--2--------------2----|--0--------2--------|
--7--------------7----|----------------------|--------------------|


  Q    E  E  Q    E  E     Q    E  E  Q    Q       Q    E  E  Q    E  E   
------------------------|-----------------------|------------------------|
------------------------|--0-------0--1---------|------------------------|
----------0--2----0--2--|-------2---------------|----------0--2----0--2--|
-------3----------------|------------------3----|-------3----------------|
------------------------|-----------------------|--5---------------5-----|
--1---------------1-----|--1--------------------|------------------------|


  Q    E  E  H           H        H           H        Q    Q     
----------------------|--------------------|---------------------|
--0-------0-----------|--------------------|---------------------|
-------2-----5--------|--L-----------------|--L--------5----7----|
----------------------|--------------------|---------------------|
--5----------5--------|--5--------5--------|--5--------5---------|
----------------------|--------------------|---------------------|


  W                   W                   W                   W                 
--0----------------|-------------------|-------------------|-------------------|
-------------------|--4----------------|-------------------|-------------------|
-------------------|--4----------------|--6----------------|--5----------------|
--2----------------|-------------------|--4----------------|--2----------------|
--0----------------|--4----------------|--4----------------|--4----------------|
-------------------|-------------------|-------------------|-------------------|


  W                   H        Q    Q         W                 
-------------------|----------------------||-------------------|
-------------------|----------------------||-------------------|
--L----------------|--L------------------*||--5----------------|
--L----------------|--L------------------*||--2----------------|
--L----------------|--L--------4----4-----||--4----------------|
-------------------|----------------------||-------------------|


  W                  
-------------------||
-------------------||
--L----------------||
--L----------------||
--L----------------||
-------------------||




Duration Legend
---------------
W - whole
H - half
Q - quarter
E - 8th
S - 16th
T - 32nd
X - 64th
. - note dotted
|-n-|  - n-tuplets


Tablature Legend
----------------
L - tied note

15 comments on Barrett's Theme

Pure awesome. It's really

Pure awesome. It's really good, except for one tiny detail. His name only has 1 T ;), but I guess you have the PAL version.

Are you sure about this

5

Are you sure about this part?

---------------|----------------|
---------------|----------------|
--2------------|----------------|
--0------------|--2------1------|
---------------|--3------2------|
---------------|----------------|

it's an arrangement, I take

it's an arrangement, I take creative liberties whenever I feel like it. I just happened to like the way that sounded.

All sounds awesome, but this

5

All sounds awesome, but this here:

------------------------|
-----0-----0------------|
--0---------------------|
--0-----4-----2---------|
----------------0----0----|
--3---------------------|

I do think should be:

------------------------|
-----0------------------|
--0--------0------------|
--0-----4-----2---------|
----------------0----0----|
--3---------------------|

Hey, thanks for your input.

Hey, thanks for your input. I do take some creative liberties but in this case what I have is accurate, the top note gets played twice. Thanks though :)

Heh, you sure? My ears have

Heh, you sure? My ears have told me differently.

Positive. Here, I slowed

Positive. Here, I slowed down just that part from the original soundtrack so you can hear it better.

http://two.xthost.info/kabukibear/barr.mp3

Don't try playing along with it though, my arrangement is in a different key than this original.

Oh weird.. in that one it is

Oh weird.. in that one it is the same note twice. The midi on this site is a little different then!

Just where do the midi's on this site come from?

Most are from

Most are from www.vgmusic.com. Anyway, never rely on MIDIs you found on the web. :P

Yeah, I wondered if you were

Yeah, I wondered if you were listening to a midi instead of the actual OST. You've gotta be careful with midis as they are only as accurate as the person who wrote them out.

10-4

10-4

Funny, seeing as how this

Funny, seeing as how this was transcribed from a midi, with the melody lowered a few steps.

Actually, no. I found a

Actually, no.

I found a piano version of it, tweaked it a bit, and transposed it to get it to work easier.

The best place to find audio

5

The best place to find audio files for Final Fantasy is here : http://www.ffdream.com/downld-musiques.html
You can download all FF soundtrack for free (game version, and other like the "Piano Collection" albums, remixed versions and Black Mages' covers).
Great tab, as always.

it looks greaT

5

but really hard