Login or Register to remove this ad. | Advertise Here

Ahead on Our Way (Final Fantasy VII) Guitar Tab

Submitted: Oct 01, 2007 by archard

4.565215
Average: 4.6 (23 votes)
Download | Listen
Game: Final Fantasy VII
Composer(s): Nobuo Uematsu
Style: Transcription
Series: Final Fantasy

AutoScroll: Slow | Medium | Fast
Ahead on Our Way
Final Fantasy VII
Composed by Nobuo Uematsu
Tabbed by Richard Schaefer (richard@gametabs.net)
8/6/06

e--5-3-2-3-5-------2-0-0------0-7-5-3-5---7-9-10-7-7---
B--------------0-3-------------------------------------
G------------------------------------------------------
D------------------------------------------------------
A------------------------------------------------------
E------------------------------------------------------

e--7-8-7-5-3---5-7-------2-0-0---0-2-3-5---3-5-7-8
B------------------0-1-3--------------------------
G-------------------------------------------------
D-------------------------------------------------
A-------------------------------------------------
E-------------------------------------------------

e--5-3-2-3-5-------2-0-0------0-7-5-3-5---7-9-10-7-7---
B--------------0-3-------------------------------------
G------------------------------------------------------
D------------------------------------------------------
A------------------------------------------------------
E------------------------------------------------------

e--7-8-7-5-3---5-7-------2-0-0---0-7-5-3-5---2---3-3
B------------------0-1-3----------------------------
G---------------------------------------------------
D---------------------------------------------------
A---------------------------------------------------
E---------------------------------------------------

e----------------------------------0---------------
B----------3-------------------0-1---1-------------
G----0-2-4-----4-0---------1-2-----------2-0-------
D--4---------------4-2-----------------2-------4---
A--------------------------------------------------
E--------------------------------------------------

e----------2---0-2-5-3-5-7-0-----0-------------------------
B------2-3---3---------------------0-1-----------0-1--3-1-3
G--2-4---------------------------------1-2---0-2-----------
D----------------------------------------------------------
A----------------------------------------------------------
E----------------------------------------------------------

e--------------------0-------------------------
B--0-----------------------1-------------------
G----0-------0---------------2-0------------0-2
D------4-2-4---2-----------------4-------------
A----------------------------------------------
E----------------------------------------------

16 comments on Ahead on Our Way

Hey sound awsome nicely done

Hey sound awsome nicely done mate
Best Wishes
Patrick

i like this site

i like this site

Really great job. I love

Really great job. I love this site too ^^

Ive played through FF7 so

Ive played through FF7 so many times but its been awhile... I dont remember this song but it sounds awesome! Nicely Done

nicely done

nicely done hahahahahahahaahahhaahh MwahahahahahahahahahahMwahahahaha nice tabs

Awesome tab!

5

Awesome tab!

Really nice. Consider

5

Really nice. Consider yourself five'd. Now excuse me while I go commit this to memory.

Well, if this is the

5

Well, if this is the worldmap music from the beginning of the game, then you cana lso play a rythm part, for the first few riffs or whatever on the A and hi D strings.

D-------10-8-
A-4-6-8------

Then,

D-
A-4-6-8-11-9

Well, that should help anyone else, you know, if that's the song this is... I don't know. I figured it out from opening the Highwind Takes To The Sky midi in FL Studio and I used the Piano roll to figure out that riff right there and I noticed, "Hey, isn't this the main riff for the worldmap music, too?" XD

This isn't the World Map

This isn't the World Map music...

This is the theme that plays

This is the theme that plays just after you leave Midgar and you are deciding the on the party members, right before you head for Kalm Village.

GREAT! sounded bad when i

5

GREAT! sounded bad when i first played it cause i fell asleep with my guitar and got all outtta tune x_X Tuned it and now ITs PERFECT!!!

Nice tab, ive always loved

5

Nice tab, ive always loved this tune, but never though about learning to play it myself until I saw it now.

I love you

5

I love you

Wow

This is really Good
and one of my favorite songs on ff7

you should make tabs for "One

5

you should make tabs for "One Winged Angel" i can't find it anywhere

You can submit a request,

You can submit a request, click Request at the top