Login or Register to remove this ad. | Advertise Here

Sadness (Dragon Quest VII) Guitar Tab

Submitted: Oct 01, 2007 by ronito (Last updated: Sep 15, 2009)

5
Average: 5 (4 votes)
Download | Listen
Game: Dragon Quest VII
Composer(s): Koichi Sugiyama
Style: Arrangement, Fingerstyle
Series: Dragon Quest

AutoScroll: Slow | Medium | Fast
Acoustic Guitar
     E  E  E  E  H           E  E  E  E  H           E  E  E  E  E  E  E  E
E||--------0--1--L--------|-----1--3--5--L--------|-----------0--3--1--0-----|
B||-----3-----------------|-----------------------|--------3-----3--------3--|
G||-----------------------|-----------------------|-----2--------2-----------|
D||--0--------------------|-----------------------|--3-----------------------|
A||-----------------------|--0--------------------|--------------------------|
E||-----------------------|-----------------------|--------------------------|

  Q    E  E  H           E  E  E  E  E  E  E  E     Q    E  E  Q    Q
----------------------|--------------0--------0--|-----------------------|
--1----1--3-----------|-----------------3--2-----|-----------------------|
--2----------3--------|-----0--2--3--------0-----|--2----0--2------------|
--5----------5--------|--------------------------|--3----2-----0---------|
-------------5--------|--1-----0-----------------|------------------3----|
-------------3--------|--------------3-----------|-----------------------|

  E  E  E  E  E  E  E  E     H.           E  E     Q    E  E  Q    E  E
--------------------------|---------------0--1--|-------5----------7--3--|
--------------------------|---------------------|--3---------------------|
-----------0--3--2--0--2--|---------------------|------------------------|
-----2--3-----------------|--2------------------|-------0--3--0----------|
--1-----------------------|--0------------------|------------------------|
--------------3-----------|---------------------|------------------3-----|

  Q    E  E  Q    E  E     E  E  E  E  Q    E  E     E  E  E  E  E  E  E  E
--1----0--1-------------|--------------0-------8--|--5--------------0--2--5--|
-------1-----0----------|--------1--3-------------|--------------3-----------|
--2----2-----0-------0--|-----3--------0----------|-----------2--------------|
--0---------------0-----|--0-----2--3-------------|--0--2--4-----------------|
-------------2----------|-------------------------|--------------------------|
------------------------|-------------------3-----|--------------------------|

  S S S S E  E  Q    S S S S    S S S S E  E  E  E  E  E
--6-8-6-8-6----------6-5-3-1-|--0-1-0-1-0-----------0-----|
-----------------------------|----------------------------|
-----------------------------|--2----------0--------------|
-----------------------------|----------------3--2--0-----|
-------------0--1--------3---|-------------------------1--|
----------3------------------|----------------------------|

  S S S S Q    Q    S S S S    S S S S S S S S Q    E  E
--5-6-5-6-5---------5-3-1-0-|----0-1-3-5---------------5--|
----------------------------|--3--------------------------|
--0-------------------------|--2-------------0-2----------|
----------2-----------------|----------0-2-3--------------|
---------------0----4-------|-----------------------0-----|
----------------------------|-----------------------------|

  S S S S E  E  Q    S S S S    S S S S Q    Q    Q
--6-8-6-8-6----------6-5-3-1-|--0-1-0-1-0---------0----|
-----------------------------|-------------------------|
-----------------------------|--0----------------------|
-----------------------------|----------2----0---------|
-------------0--1--------3---|--------------------3----|
----------3------------------|-------------------------|

  E  E  E  E  Q    S S S S    E  E  H.
--5--6-----3--0----0-1-0-1-|--0--1---------------||
--------3------------------|--------3------------||
--0-----3-----2------------|--2-----3------------||
--0-----5------------------|--0-----5------------||
--------5-----4------------|--------6------------||
--6------------------------|---------------------||

Duration Legend
---------------
W - whole
H - half
Q - quarter
E - 8th
S - 16th
T - 32nd
X - 64th
. - note dotted
|-n-|  - n-tuplets

1 comment on Sadness

^_^

Idk wat it is bt i love the sound. ah. just plain enjoy playn. thank ya