Login or Register to remove this ad. | Advertise Here

Voyage - Home World (Chrono Cross) Guitar Tab

Submitted: Apr 04, 2009 by hslesperance (Last updated: Feb 05, 2012)

5
Average: 5 (2 votes)
Download | Listen
Game: Chrono Cross
Composer(s): Yasunori Mitsuda
Style: 2 or more instruments, Artificial harmonics, Transcription
Series: Chrono

AutoScroll: Slow | Medium | Fast
Voyage - Home World
Chrono Cross
Composed by Yasunori Mitsuda
Tabbed by hslesperance
3/28/09

Standard Tuning


Guitar 1

e--------8----7-----------------------------------------------
B------------------10----7----8-------------------------------
G---7------------------------------7--------------------------
D---------------------------------------10--------------------
A-------------------------------------------------------------
E-------------------------------------------------------------

e-------------8----7----10--------------5h7p5-----------------
B--------8--------------------8----8--------------------------
G---7---------------------------------------------------------
D-------------------------------------------------------------
A-------------------------------------------------------------
E-------------------------------------------------------------

e--------8----7-----------------------------------------------
B------------------10----7----8-------------------------------
G---7------------------------------7--------------------------
D---------------------------------------10--------------------
A-------------------------------------------------------------
E-------------------------------------------------------------

e-------------8----7----10--------------5h7p5-----------------
B--------8--------------------8----8--------------------------
G---7---------------------------------------------------------
D-------------------------------------------------------------
A-------------------------------------------------------------
E-------------------------------------------------------------
                                    AH
e---5----7----9--10--12--------7------------------------------
B------------------------10---------10-8-7--8--10-------------
G--------------------------------------------------7----------
D-------------------------------------------------------------
A-------------------------------------------------------------
E-------------------------------------------------------------

e---5----7----9--10--12----------7----------------------------
B------------------------10-------------10--10----9----10-----
G-------------------------------------------------------------
D-------------------------------------------------------------
A-------------------------------------------------------------
E-------------------------------------------------------------
                                        AH
e-------------------------------------------------------------
B---8-10-8--7---------------------------10--------------------
G--------------7----------------9--7-7------------------------
D-------------------------------------------------------------
A-------------------------------------------------------------
E-------------------------------------------------------------

e-------7--9--7-----------------------------------------------
B---10-------------8----------------10------8--7--------------
G-------------------------------------------------9----7------
D-------------------------------------------------------------
A-------------------------------------------------------------
E-------------------------------------------------------------

e-------------------------------------------------------------
B--------7----8----7----8-------------------------------------
G---9---------------------------------------------------------
D-------------------------------------------------------------
A-------------------------------------------------------------
E-------------------------------------------------------------


Guitar 2

There is more to the second guitar, but it is so quiet I can
barely hear the notes other than at the beginning of the song.

The 3's in parentheses are optional. 
The drum plays those notes but the guitar does not.

e-------------------------------------------------------------
B------------------------1p0------------------------1p0-------
G-----------0----2----0----------------0----2----0------------
D--------0-----0----0---------------0-----0----0--------------
A-------------------------------------------------------------
E---(3)--------------------(3)-(3)----------------------------

h - hammer on
p - pull off

3 comments on Voyage - Home World

I do like this tab, however,

5

I do like this tab, however, don't you think the 10 on D at the end of the first measure should be 5h7p5 on G? Then slide back to 7 to start the second one.

It sounds more like 9p7h9 on

It sounds more like 9p7h9 on G to me. And that is a separate guitar playing thrown in for that short fill, not the lead electric.

Thanks for the 5-star :D

Oh, really, lol I didn't even

5

Oh, really, lol I didn't even realize there were 2 of them!