Login or Register to remove this ad. | Advertise Here

Voyage - Another World (Chrono Cross) Bass/Guitar Tab

Submitted: Apr 04, 2009 by hslesperance (Last updated: Apr 05, 2010)

5
Average: 5 (1 vote)
Download | Listen
Game: Chrono Cross
Composer(s): Yasunori Mitsuda
Style: 2 or more instruments, Transcription
Series: Chrono

AutoScroll: Slow | Medium | Fast
Voyage - Another World
Chrono Cross
Composed by Yasunori Mitsuda
Tabbed by hslesperance
4/3/09

Standard Tuning


Guitar 1

e-------4----3---------------4----6---------------4----3------
B-----4---------4----------4---------4----------4---------4---
G---6--------------------5--------------------6---------------
D-------------------------------------------------------------
A-------------------------------------------------------------
E-------------------------------------------------------------

e-------------------------------------------------------------
B---4--6--4--------1--2--4--------2-----------2--4--2---------
G----------------------------------------1---------------1----
D-------------------------------------------------------------
A-------------------------------------------------------------
E-------------------------------------------------------------

e-----------------1---------------------------------------1---
B--------1-2----4------4-2-1----------------------2---4-------
G---3-------------------------3--1----------------------------
D-------------------------------------------------------------
A-------------------------------------------------------------
E-------------------------------------------------------------

e---1--2--1h2p1-----------------------------------------------
B---------------2----4---4--5--4h5p4------2---2--3--2h3p2-----
G------------------------------------4--------------------2---
D-------------------------------------------------------------
A-------------------------------------------------------------
E-------------------------------------------------------------

e------------0--1----1--2--1h2p1------------------------------
B---0--2--3----------------------2----4---4--5--4h5p4---------
G-----------------------------------------------------4-------
D-------------------------------------------------------------
A-------------------------------------------------------------
E-------------------------------------------------------------

e---------------------------2--1------------------4-----------
B---2---2--3--2h3p2------0--------4--2----------4-------------
G-------------------2-------------------------6---------------
D-------------------------------------------------------------
A-------------------------------------------------------------
E-------------------------------------------------------------


Guitar 2

e-------------4------------------------4----------------------|
B--------4----------8--4--6-------4----------8--4--6----------|
G-------------------------------------------------------------|
D------6----6----6--------------6----6----6-------------------|
A---4------------------------4--------------------------------|
E-------------------------------------------------------------|
                                                              |Play 4 times
e-------------4-----3--4--6------------4-----3--4--6----------|
B--------4------------------------4---------------------------|
G-------------------------------------------------------------|
D------6----6----6--------------6----6----6-------------------|
A---3------------------------3--------------------------------|
E-------------------------------------------------------------|

e-------------4---------------------4-------------------------
B-------------------------------------------------------------
G-----5----6--------5--6------5--6-----------6----------------
D---4----4-------4----------3----------3--6-------------------
A-------------------------------------------------------------
E-------------------------------------------------------------

e-------------------------------------------------------------
B--------1-2---------1-2---------1-2---------1-2--------------
G-----3-----------2-----------1-----------0-------------------
D---3-----------3-----------3-----------1---------------------
A-------------------------------------------------------------
E-------------------------------------------------------------

e-------------------------------------------------------------
B-----------2--------2--1----------1-----2--4-----------------
G-----0--3-----1-------------1--3-----1-----------------------
D---1-------------1--------1----------------------------------
A-------------------------------------------------------------
E-------------------------------------------------------------

e-------------------------------------------------------------
B-----2--4-----------------------2----------------------------
G---1------1---------1--------4-------------------------------
D-----------------4---------4------4------2--4----------------
A---------------4------4----------------2------2--------------
E-------------------------------------------------------------

e-------------------------------------------------------------
B-----------------3--5-----------------------0-2--------------
G-----2--4------2------2------0--2--------2-------------------
D---2------2----------------0------0----2---------------------
A-------------------------------------------------------------
E-------------------------------------------------------------

e-------------------------------------------------------------
B-----2--4-----------------------2----------------------------
G---1------1---------1--------4-------------------------------
D-----------------4---------4------4------2--4----------------
A---------------4------4----------------2------2--------------
E-------------------------------------------------------------

e-------------------------------------------------------------
B-----------------3--5-----------------------2-1--------------
G-----2--4------2------2------0--2--------3-------------------
D---2------2----------------0------0----1---------------------
A-------------------------------------------------------------
E-------------------------------------------------------------

e-------------------------------------------------------------
B-------------4--------7--6------------4--------7--6----------
G--------6----------4-------------6----------4----------------
D------6----6----4--------------6----6----4-------------------
A---4------------------------4--------------------------------
E-------------------------------------------------------------


Bass

G-----------------6-------------------------5-----------------|
D----------6---------------6---------6---------------6--------|Play 3 times
A---4-------------------------3-------------------------------|
E-------------------------------------------------------------|

G-------------------------------------------------------------
D---4---------4-----3---------3-------------------------------
A--------4-------4-------4-------4----------------------------
E-----------------------------------6------5------4------3----

G-------------8-----------------------------------------------
D----------------6--------------------------------------------
A--------6---------------6-------4-----------------2----------
E---4---------------4---------4-----------2-------------------

G-------------------------------------------------------------
D---2-----------------0---------------------------------------
A------------0--------------------------0--------4------------
E------------------------------3------------------------------

G-------------------------------------------------------------
D---------------------2-----------------0---------------------
A------------2-----------------0------------------------------
E---2--------------------------------------------3------------

G-------------------------------------------------------------
D-------------------------------------------------------------
A------------4------------------------------------------------
E---4---------------------------------------------------------

h - hammer on
p - pull off

1 comment on Voyage - Another World

Page title says "Another

Page title says "Another Termina" instead of "Voyage - Another World"