Login or Register to remove this ad. | Advertise Here

Time's Scar (Chrono Cross) Guitar Tab

Submitted: Oct 01, 2007 by archard (Last updated: Sep 15, 2009)

4.666665
Average: 4.7 (9 votes)
Download | Listen
Game: Chrono Cross
Composer(s): Yasunori Mitsuda
Style: Transcription
Series: Chrono

AutoScroll: Slow | Medium | Fast
Time's Scar
Chrono Cross
Composed by Yasunori Mitsuda
Tabbed by Richard Schaefer (richard@gametabs.net)
9/16/06

e--------------------------------------------------
B--------------3--------3---------------3--------3-
G-----------0--------0---------------0--------0----
D--------4--------4---------------4--------4-------
A-----2------------------------2-------------------
E--0------------------------0----------------------

e---------------------------------------0
B--------------3--------3----------------
G-----------0--------0---------------0---
D--------4--------4---------------4------
A-----2------------------------2---------
E--0------------------------0------------

e--------------------------------------------------
B--------------3--------3---------------3--------3-
G-----------0--------0---------------0--------0----
D--------4--------4---------------4--------4-------
A-----2------------------------2-------------------
E--0------------------------0----------------------

e--------------0------------------------0---------
B-----------3-----------3------------3------------
G--------0-----------0------------0-----------0---
D-----4-----------4------------4-----------4-----4
A--3------------------------3---------------------
E-------------------------------------------------

e---------------------------------------2-0--------
B--------------3--------3------------3------3------
G-----------0--------0------------0-----------0----
D--------4--------4------------4-----------------0-
A-----2--------------------------------------------
E--0------------------------0----------------------

e-------------------------------------------------
B--------------0-----0------------------0-----0---
G-----------2------------------------2------------
D--------3--------3-----3---------3--------3-----3
A-----3------------------------3------------------
E--1------------------------1---------------------

e---------------------------------------2-0---------------------2----------
B--------------3--------3------------3------3--------------3----3-----3----
G-----------0--------0------------0-----------0---------------0-2--2-----2-
D--------4--------4------------4-----------------0------0------------------
A-----2--------------------------------------------------------------------
E--0------------------------0------------------------3---------------------

e--0------------------------------------2---------
B-----------0--1------------0--------3--------3---
G--------0-----------0------------0--------2-----2
D-----2-----------2-----2------0--------0---------
A--------------3----------------------------------
E--0------------------------3---------------------

e-----------------------
B--5--3--5--------------
G-------------------7---
D----------------------5
A--------------2s7------
E-----------------------

6 comments on Time's Scar

Thanks for the tab, I'd

Thanks for the tab, I'd wanted to play this with my sisters for a while, since they play flute and violin. Finally I'm good enough to play it right, and I'm glad I could find a good copy of the parts. Thanks for the great tab.

The intro part of this song

The intro part of this song is great. Good job.

This intro is great indeed,

This intro is great indeed, but what about the rest of the song? what about the remaining strummed chords that play altogether with the strings and flute?

ya..im oso oredy go 4

2

ya..im oso oredy go 4 it..but without the other instrument stil can run it very well..coz some ppl r duno what song it b if they nvr play the game b4..rily hope dat got another tab like radical dreamer tab..just 1 person play it but like 2 person on the tab..

hey thyer

hey thyer

so hard to do this!, my

so hard to do this!, my middle finger messes up the b string!