Login or Register to remove this ad. | Advertise Here

Lost Pieces (Chrono Cross) Guitar Tab

Submitted: Oct 01, 2007 by archard (Last updated: Sep 15, 2009)

4.285715
Average: 4.3 (7 votes)
Download | Listen
Game: Chrono Cross
Composer(s): Yasunori Mitsuda
Style: Transcription
Series: Chrono

AutoScroll: Slow | Medium | Fast
Lost Pieces
Chrono Cross
Composed by Yasunori Mitsuda
Tabbed by Richard Schaefer (richard@gametabs.net)
10/4/06

e----------7-5----------------------0--1--1--3--0--------------
B--------------5-----------3-----3-----1--------1--1--------5-4
G------4-5-------5-2-----2-------------2--------0-----4---4----
D----2---------------0-4---------------3--------2-------4------
A--0-----------------------------------3--------3-----2--------
E--------------------------------------1-----------------------

e------------------------------------------------
B--------------3--------3--------------3--------3
G-----------0--------0--------------0--------0---
D--------4--------4--------------4--------4------
A-----2-----------------------2------------------
E--0-----------------------0---------------------

e--------------0-----------------------0---------
B-----------3-----------3-----------3-----------3
G--------0-----------0-----------0-----------0---
D-----4-----------4-----------4-----------4------
A--3-----------------------3---------------------
E------------------------------------------------

e--------------------------------------2-0-------
B--------------3--------3------------------3-----
G-----------0--------0--------------0---------0--
D--------4--------4--------------4--------------0
A-----2-----------------------2------------------
E--0-----------------------0---------------------

e------------------------------------------------
B--------------0-----0-----------------0-----0---
G-----------2-----------------------2------------
D--------3--------3-----3--------3--------3-----3
A-----3-----------------------3------------------
E--1-----------------------1---------------------

e--------------------------------------2-0--------------------2---------
B--------------3--------3------------------3-------------3----3-----3---
G-----------0--------0--------------0---------0-------------0-2--2-----2
D--------4--------4--------------4--------------0-----0-----------------
A-----2-----------------------2-----------------------------------------
E--0-----------------------0-----------------------3--------------------

e--0-----------------------------------2-------------------
B-----------0--1-----------0--------3--3-----3------5--3--5
G--------0-----------0-----------0-----2--2-----2----------
D-----2-----------2-----2-----0--------0-------------------
A--------------3-------------------------------------------
E--0-----------------------3-------------------------------

e--7---3---5-----3-2-3-2h3p2---0--
B--5-------3-----------------3---0
G--5-------2----------------------
D--5------------------------------
A---------------------------------
E---------------------------------

e--7---3---5----------------10
B--5-------3-----8h10p8-7-8---
G--5-------2------------------
D--5--------------------------
A-----------------------------
E-----------------------------

e--7---0---5-----3-2h3p2-3-2---0--
B--5-------3-----------------3---0
G--5-------2----------------------
D--5------------------------------
A---------------------------------
E---------------------------------

e--7--------5--------------------
B--5-----5------8---7---5-----5-4
G--5-----------------------------
D--5-----------------------------
A--------------------------------
E--------------------------------

Repeat from second line

12 comments on Lost Pieces

Beautiful, I love the last

Beautiful, I love the last part, I finally was able to play this song completely without slowing. I love it thanks!

I love this track. I've been

I love this track. I've been searching everywhere for one that sounded just like the track. I found another that had a different intro but mixing it sounded good anyway. Not that I'm saying I hate this intro, just not comfortable with it. You're pretty good at tabbing. You should tab the Dead Sea track (Disc 2 track 15 of the soundtrack if you have it). ^_^

on the beginning it sounds

5

on the beginning it sounds like 'californication' :)

holllly crap how the heck is

holllly crap how the heck is anyone supposed to play that chord in the intro......

It's a bar chord. Lol Put

It's a bar chord. Lol
Put your index finger all along the first fret for all 6 strings, then finger the rest.

superdoughboy4 said It's a

superdoughboy4 said

It's a bar chord. Lol
Put your index finger all along the first fret for all 6 strings, then finger the rest.

Ummmmm..... I tried your technique. Didn't work. I just got some poopy twangy crap noise.

It's one of the basic

It's one of the basic techniques you'll have to learn to play guitar.

That really doesn't help me

That really doesn't help me at all. No matter how hard i smash my index on the first fret the B string never sounds right, it's right on the crease of my finger.

poop saidThat really doesn't

poop said

That really doesn't help me at all. No matter how hard i smash my index on the first fret the B string never sounds right, it's right on the crease of my finger.

Turn your index finger sideways so more of the bone-y ish side of your finger is pressed against the strings.

Then put your middle finger on the 2nd fret on the G string, your ring finger on the 3rd fret on the A string and your pinky on the 3rd fret of the D string.

This is a very common chord shape and is important to learn no matter what kind of guitar you play so it's best to get it down.

Here is a picture of someone doing it for reference

What karathrow said is good,

What karathrow said is good, but just a side note: You can play chords like this anywhere on the neck, and the *hardest* spot physically is at the first fret. If you're having a hard time, you could try to learn it on higher frets first, like around the 7th maybe (799877), then come back to doing it on the first fret.

Thanx

Thanx

Its all good cept the 3rd

4

Its all good cept the 3rd line should be 0 3 2 0 2 0 try that it will work perfect