Login or Register to remove this ad. | Advertise Here

Home Arni Village (Chrono Cross) Guitar Tab

Submitted: May 29, 2008 by conqueran (Last updated: Dec 04, 2010)

4.5
Average: 4.5 (2 votes)
Download | Listen
Game: Chrono Cross
Composer(s): Yasunori Mitsuda
Style: Arrangement, Fingerstyle
Series: Chrono

AutoScroll: Slow | Medium | Fast
Written by 
conqueran
Freely Distributable TAB

version 1.01

|----3-----3-4-3-1---1-----------3-----3-4-3-1-------6---------|
|------------------4---------4-----------------4-6---------9---|
|3-------3-------------3-1-----------3-------------------------|
|----1-------------------1-------1---------------6-8-6---------|
|--------------------------------------------------------6-----|
|--------------------4-----------------------------------------|


|3-------3-4-3-1---1------------1-----------------------|
|----------------4---------4----------------------------|
|----3---------------3-1------------3---1---0-----------|
|1---------------------1----------------3---1-----------|
|-------------------------------1-----------------------|
|------------------4------------------------------------|


|--------6---4-------1---3-------6-------11--10--|
|8-----------2-----------4-----------9-----------|
|8-----------------------3-----------8-----------|
|------------------------------------10----------|
|6-----------1-----------3-----------------------|
|------------------------------------------------|


|11------4---3-----------3------4---1-----------|
|11--11--6---4-------4-6-4----------3-------4---|
|12------5---3-----------3----------1-----------|
|-----------------------------------------------|
|------------3----------------------1-----------|
|11----------------------4----------------------|


|--------------------1---2-4---------------------|
|4-----------4---------------4-------------------|
|3-----------3-------------------4---6---4-----6-|
|6-----------5---------------4---------------4---|
|4-----------6-----------2-----------------------|
|------------------------------------------------|


|----6-----------4~6~4-----1-2-9-------------------|
|4---------------------7-----------------------12--|
|4-------4---6---4---------------------------------|
|----4-----------------4---------------------------|
|----------------------------------9---11--9-------|
|--------------------------2---9---------------9---|

|------------------------1---------2~1-------------|
|11--------------9---11----------0-----4-----------|
|--------------------------------------6---4-------|
|------------9---------------4-----------------4---|
|9-------9-------9-------2-------------------------|
|----9---------------------------------------------|

|------------------------2-----------6-------4---|
|------------4---6---7---------------------------|
|--------4-------4-------------------------------|
|----4---------------4-----------4-----------2---|
|----------------------------4-----------4-------|
|7-----------------------2-----------0-----------|

|4-----------3---4---6---7-------7---9-----------|
|--------------------------------------------7---|
|--------------------------------4-----------6---|
|------------------------------------------------|
|--------6-------------------6-----------8-------|
|----4-------------------4-----------6-----------|

|11------11--13--14--13--13----------------------|
|------------------------------------------------|
|------------------------------------10----------|
|--------9-----------11----------13------13------|
|----9-----------11----------13--------------13--|
|7-----------9-----------11----------------------|

|11----------------------------------------------|
|--------------------------------4---2-------1---|
|------------0-----------5-----------1-----------|
|------------------------------------3-----------|
|13------11--------------6-----------4-----------|
|11----------11----------4-----------------------|

|----------------------------------------1-------|
|------------------------1-------4---2-------4---|
|3-----------0---1---3---1---------------1-------|
|6-----------1-----------------------------------|
|6-----------------------------------4-----------|
|------------------------------------------------|

|------------------------------------------------|
|4-----------------------1-------4---2-------1---|
|1-------3---0-----------1---------------1-------|
|1-----------------------3-----------------------|
|------------------------------------4-----------|
|------------------------------------------------|

|------------------------------------------------|
|------------------------------------------------|
|3-----------0---1---3---1-----------1-------3---|
|1-----------1-------------------1-----------1---|
|------------------------4---4-------4---4-------|
|------------------------------------------------|

|------------------------------------------------|
|----------------1-------------------------------|
|1-------1---3-------1---1-------1---3---1-------|
|----1-----------------------1-------4-------1---|
|3-----------------------2-----------------------|
|------------------------------------------------|

|------------------------------------------------|
|------------------------------------------------|
|------------3-----------3------------------3----|
|3-------3-------3-------3-----------------------|
|6---6---------------6---6-----------------------|
|6-----------------------6-----------------------|

repeats...

5 comments on Home Arni Village

good tab

good tab, hard to play as is, it's a lil easier to play when you capo it on 1st fret and minus all notes by 1 like this
|----2-----2-3-2-0---0-----------2-----2-3-2-0-------5---------|
|------------------3---------3-----------------3-5---------8---|
|2-------2-------------2-0-----------2-------------------------|
|----0-------------------0-------0---------------5-7-5---------|
|--------------------------------------------------------5-----|
|--------------------3-----------------------------------------|

easier to play this way.
Great tab keep it up

sirorion4000 said good tab,

sirorion4000 said

good tab, hard to play as is, it's a lil easier to play when you capo it on 1st fret and minus all notes by 1 like this
|----2-----2-3-2-0---0-----------2-----2-3-2-0-------5---------|
|------------------3---------3-----------------3-5---------8---|
|2-------2-------------2-0-----------2-------------------------|
|----0-------------------0-------0---------------5-7-5---------|
|--------------------------------------------------------5-----|
|--------------------3-----------------------------------------|

easier to play this way.
Great tab keep it up

I made a notepad version with the tab changed to reflect the capo. I know it's easy to just count -1 on each one but it's also easier to not have to do that XD. You do lose one of the bass notes unless you mess with the tuning though.

CAPO 1

|----2-----2-3-2-0---0-----------2-----2-3-2-0-------5---------|
|------------------3---------3-----------------3-5---------8---|
|2-------2-------------2-0-----------2-------------------------|
|----0-------------------0-------0---------------5-7-5---------|
|--------------------------------------------------------5-----|
|--------------------3-----------------------------------------|


|2-------2-3-2-0---0------------0-----------------------|
|----------------3---------3----------------------------|
|----2---------------2-0------------2---0---------------|
|0---------------------0----------------2---4-----------|
|-------------------------------0-----------5-----------|
|------------------3------------------------------------|


|--------5---3-------0---2-------5-------10--9---|
|7-----------1-----------3-----------8-----------|
|7-----------------------2-----------7-----------|
|------------------------------------9-----------|
|5-----------0-----------2-----------------------|
|------------------------------------------------|


|10------3---2-----------2------3---0-----------|
|10--10--5---3-------3-5-3----------2-------3---|
|11------4---2-----------2----------0-----------|
|-----------------------------------------------|
|------------2----------------------0-----------|
|10----------------------3----------------------|


|--------------------0---1-3---------------------|
|3-----------3---------------3-------------------|
|2-----------2-------------------3---5---3-----5-|
|5-----------4---------------3---------------3---|
|3-----------5-----------1-----------------------|
|------------------------------------------------|


|----5-----------3~5~3-----0-1-8-------------------|
|3---------------------6-----------------------11--|
|3-------3---5---3---------------------------------|
|----3-----------------3---------------------------|
|----------------------------------8---10--8-------|
|--------------------------1---8---------------8---|

|------------------------0---------1~0-------------|
|10--------------8---10----------------3-----------|
|--------------------------------4-----5---3-------|
|------------8---------------3-----------------3---|
|8-------8-------8-------1-------------------------|
|----8---------------------------------------------|

|------------------------1-----------5-------3---|
|------------3---5---6---------------------------|
|--------3-------3-------------------------------|
|----3---------------3-----------3-----------1---|
|----------------------------3-----------3-------|
|6-----------------------1-----------------------|

|3-----------2---3---5---6-------6---8-----------|
|--------------------------------------------6---|
|--------------------------------3-----------5---|
|------------------------------------------------|
|--------5-------------------5-----------7-------|
|----3-------------------3-----------5-----------|

|10------10--12--13--12--12----------------------|
|------------------------------------5-----------|
|--------------------------------7-------7-------|
|--------8-----------10------7---------------7---|
|----8-----------10------------------------------|
|6-----------8-----------10----------------------|

|10----------------------------------------------|
|--------------------------------3---1-------0---|
|------------------------4-----------0-----------|
|7-------5---5-----------------------2-----------|
|5-----------5-----------5-----------3-----------|
|------------------------3-----------------------|

|----------------------------------------0-------|
|------------------------0-------3---1-------3---|
|2---------------0---2---0---------------0-------|
|5-----------4-----------------------------------|
|5-----------5-----------------------3-----------|
|------------------------------------------------|

|------------------------------------------------|
|3-----------------------0-------3---1-------0---|
|0-------2---------------0---------------0-------|
|0-----------5-----------2-----------------------|
|------------------------------------3-----------|
|------------------------------------------------|

|------------------------------------------------|
|------------------------------------------------|
|2---------------0---2---0-----------0-------2---|
|0-----------4-------------------0-----------0---|
|------------5-----------3---3-------3---3-------|
|------------------------------------------------|

|------------------------------------------------|
|----------------0-------------------------------|
|0-------0---2-------0---0-------0---2---0-------|
|----0-----------------------0-------3-------0---|
|2-----------------------1-----------------------|
|------------------------------------------------|

|------------------------------------------------|
|------------------------------------------------|
|------------2-----------2------------------2----|
|2-------2-------2-------2-----------------------|
|5---5---------------5---5-----------------------|
|5-----------------------5-----------------------|

yeah this one needs some

yeah this one needs some modification. It is too hard. I made it when I was less experienced and I based it on the piano sheet music.

Its really great when you

Its really great when you practice it and slowly build up familiarity.

some of those stretches were

some of those stretches were like ow