Login or Register to remove this ad. | Advertise Here

Frozen Flame (Chrono Cross) Guitar Tab

Submitted: Jan 23, 2008 by archard

2.75
Average: 2.8 (4 votes)
Download | Listen
Game: Chrono Cross
Composer(s): Yasunori Mitsuda
Style: Transcription
Series: Chrono

AutoScroll: Slow | Medium | Fast
Radical Dreamers
The frozen flame
Main
 
(intro) Reapeat intro once
 
-----6-----6-------------------------------------------------------
--------9------9--7--6---------------6-----------------------------
------------------------6-----8---8------6-----6-------------------
--8------------------------8---------------8-----9--8--6-----6--8--
----------------------------------------------------------9--------
-------------------------------------------------------------------
                 
(middle)
 
-------------------------------------------------------------------
------------------------------------------------7------------------
--------6--8--9--8--6--8---6-----6--8--9--8--6-----6--5------------
--8--9------------------------9------------------------------------
-------------------------------------------------------------------
-------------------------------------------------------------------
 
This part goes kind of fast.
 
-----------------------------------------------------------
-------------------------------------7---------------------
--------5--6--5--6--8--6--8--9--8--9----9--8----9-----8----
--6--8---------------------------------------------6-----9-
-----------------------------------------------------------
-----------------------------------------------------------

--------------------
--------------------
-7------------------
----9--8--7--6--5---
--------------------
--------------------
 
(ending)
 
--7-----6-----5--------------------------6--10------
--9-----7--4--4--7--6--5--4--3--------7-----10------
--8--8--6-----5-----------3-----8--8--------10------
--------------------------6-----8-------------------
--------------------------------9-------------------
----------------------------------------------------