Login or Register to remove this ad. | Advertise Here

Dream's Creation (Chrono Cross) Guitar Tab

Submitted: Oct 01, 2007 by archard (Last updated: Sep 15, 2009)

2.75
Average: 2.8 (4 votes)
Download | Listen
Game: Chrono Cross
Composer(s): Yasunori Mitsuda
Style: Transcription
Series: Chrono

This song is also called Fragment of a Dream

AutoScroll: Slow | Medium | Fast
Dream's Creation
Chrono Chross
Composed by Yasunori Mitsuda
Tabbed by Richard Schaefer (richard@gametabs.net)
8/7/06

e----2-3-5--0-----------2-------------------2-3-5--0-------0------0---2---3-2-0
B-------------3-2---2-0-------3--2-------------------3-2-------0---------------
G--2--------------------------------2-----2------------------------------------
D------------------------------------------------------------------------------
A------------------------------------------------------------------------------
E------------------------------------------------------------------------------

e----2-3-5--0-----------2-------0-2---------0-2-0-----0-----
B-------------3-2---2-0-------3-----3-----3--------------3-2
G--2--------------------------------------------------------
D-----------------------------------------------------------
A-----------------------------------------------------------
E-----------------------------------------------------------

e---------------2-----0---5-----2--------------------------2---
B-----0--2--0-----------------------2---2--3--2--3-----0-------
G--3------------------------------------------------2----------
D--------------------------------------------------------------
A--------------------------------------------------------------
E--------------------------------------------------------------

e--0---5-----2---9--7------------
B-------------------------3--2---
G-------------------------------2
D--------------------------------
A--------------------------------
E--------------------------------

e------2---0------------------------------------2-----0--------7
B--0-----------2---------2---2--3--2--3-----0------------3--2---
G--------------------2-------------------2----------------------
D---------------------------------------------------------------
A---------------------------------------------------------------
E---------------------------------------------------------------

5 comments on Dream's Creation

This is a great song, I'm

This is a great song, I'm glad I finally found a tab for it. Although some parts don't make sense to me, I heard the song on a remix so they might have changed it.

God I loved the Both Chrono

God I loved the Both Chrono Games soundtracks, and i have been looking for this tab, I like it a lot.

it makes me wanna sleep..all

it makes me wanna sleep..all time greatest game, soundtrack..

Mitsuda and Uematsu Rock!.

Mitsuda and Uematsu Rock!. They can achieve any feeling into a song.

i wish the background parts

i wish the background parts were added.still,its pretty good