Login or Register to remove this ad. | Advertise Here

Chronomantique (Chrono Cross) Guitar Tab

Submitted: Jan 12, 2008 by archard (Last updated: Sep 26, 2009)

4.285715
Average: 4.3 (7 votes)
Download | Listen
Game: Chrono Cross
Composer(s): Yasunori Mitsuda
Style: Transcription
Series: Chrono

This song is also called Chronomantic

AutoScroll: Slow | Medium | Fast
Chronomantique
Chrono Cross
Composed by Yasunori Mitsuda
Tabbed by Richard Schaefer (richard@gametabs.net)
1/12/08



      H        E  E  E  E     H        E.  T T E  E     H        Q.     S S  
E||------------------------|--6--------L---4-6-4-----|----------------------|
B||---------------------9--|----------------------7--|--6-------------------|
G||*-----------------8-----|-------------------------|-----------6------8-6-|
D||*-----------6--8--------|-------------------------|----------------------|
A||------------------------|-------------------------|----------------------|
E||------------------------|-------------------------|----------------------|


  E.  E.  E  H           H.           E  E     H.           E  E   
----------4--L--------|--L------------4-----|--6------------4--6--|
----------------------|------------------6--|---------------------|
--5---6---------------|---------------------|---------------------|
----------------------|---------------------|---------------------|
----------------------|---------------------|---------------------|
----------------------|---------------------|---------------------|


  H        H           W                   H        S S S S E  S S  
--8--------9--------|--6----------------|--L-----------------------|
--------------------|-------------------|-------------6-7-6--------|
--------------------|-------------------|-------------------8--6---|
--------------------|-------------------|------------------------9-|
--------------------|-------------------|--------------------------|
--------------------|-------------------|--------------------------|


                             |--3--|   |--3--|   |-3|              
  E.  S Q    S S S S Q       E  E  E   E  E  E   E  Q    E  T T S  
--------------------------|---------------------------------------|
---------------------9----|--9--7--9------7-----------------------|
--8----------------8------|-----------10-----8--10--6-------6-8-6-|
------8-L------6-8--------|---------------------------------------|
--------------------------|---------------------------------------|
--------------------------|---------------------------------------|


  E.  E.  E  H           S  S S S S  S S S S S S  S S  E  S  
----------------------|----11-9-8-9------8------------------|
----------9--L--------|-------------11-------9---11-------9-|
--5---6---------------|-------------------------------10----|
----------------------|-------------------------------------|
----------------------|-------------------------------------|
----------------------|-------------------------------------|


  E.  E  H        S S S    E  S S S S S Q    T T E  E   
------------------------|------------------------------|
------------------------|------------------------------|
--8---6--L----------8-6-|--8--6-8---6---5----6-5-------|
------------------8-----|------------------------8--6--|
------------------------|------------------------------|
------------------------|------------------------------|


               |--3--|                                                 
  H.           E  E  E     H.           Q       E.  E.  Q    E  E  E   
------------------------|--------------------|------------------------|
------------------------|--------------------|------6---7-------6-----|
--5------------L--6--5--|--------------------|--8------------------6--|
------------------------|--8------------8----|---------------8--------|
------------------------|--------------------|------------------------|
------------------------|--------------------|------------------------|


  H        E  E.  S S S    E.  E.  S S H           H.           E  E   
------------------------|--6---6----------------|---------------------|
----------------------9-|----------9-8----------|---------------------|
--L--------L--------8---|--------------8--------|--L------------------|
--------------6---8-----|-----------------------|------------------8--|
------------------------|-----------------------|---------------------|
------------------------|-----------------------|---------------------|


  E.  E.  Q    E  E  E     H        E  E.  S S S    E.  E.  S S H         
------------------------|------------------------|--6---6----------------|
------6---7-------6-----|----------------------9-|----------9-8----------|
--8------------------6--|--L--------L--------8---|--------------8--------|
---------------8--------|--------------6---8-----|-----------------------|
------------------------|------------------------|-----------------------|
------------------------|------------------------|-----------------------|


  H.           E   E      H        H            H         Q.      E   
----------------------|---------------------|------------------------|
----------------------|------------9--------|--11--------12------12--|
--L------------8--10--|--11-----------------|------------------------|
----------------------|---------------------|------------------------|
----------------------|---------------------|------------------------|
----------------------|---------------------|------------------------|


        |--3--|                                                       
  E.  S E  E  E  H           H.           E  E     H        H         
--9---9-L--8--7--6--------|--L------------------|--------------------|
--------------------------|---------------------|-----------7--------|
--------------------------|---------------8--6--|--8-----------------|
--------------------------|---------------------|--------------------|
--------------------------|---------------------|--------------------|
--------------------------|---------------------|--------------------|


  H        H           E.  E.  E  H                        
--------------------|-----------------------||-----------||
--9--------7--------|--6-------6--L---------||-----------||
--------------------|------8---------------*||-----------||
--------------------|----------------------*||-----------||
--------------------|-----------------------||-----------||
--------------------|-----------------------||-----------||




Duration Legend
---------------
W - whole
H - half
Q - quarter
E - 8th
S - 16th
T - 32nd
X - 64th
. - note dotted
|-n-|  - n-tuplets


Tablature Legend
----------------
L - tied note

1 comment on Chronomantique

Ah! This is great

Ah! This is great Archard!
Unfortunately, the MIDI doesn't capture the song as it should, but it's a great tab.